Beatles

Beatles - The Word bass tab

Title : The Word

Artist : The Beatles

Album : Rubber Soul

Tabbed By : Ken Robertson

------------------------------------------------

G---------------------------------------------------------------------------

D---------------------------------------------------------------------------

A---5-5-5-3-------3-5-5-5-3-------3-5-5-5-3-------3-5-5-5-3-------3-5-5-5-3-

E-----------5-5-5-----------5-5-5-----------5-5-5-----------5-5-5-----------

G-------------------------------------------------------------------------

D----------------------------3-5-5-5-3-------3-5-5-5-3--------------------

A---------3-5-5-5-3--------5-----------5-5-5-----------5-5-5--3---5-5-5-3-

E---5-5-5-----------5-5-5---------------------------------------5---------

G-------------------------------------------------------------------------|

D--------------------------------7--------5-------------------------------|

A---------3-5-5-5-3----------4-7------2-5----5--5-3-------3-5-5-5-3-------|

E---5-5-5-----------5-3-3--5--------3---------------5-5-5-----------5-5-5-|

G----------------------------------------5-|

D---------------------3-3-3-3--5-5-5-5h7---|

A---5-5-5-5--3-3-3-3-----------------------|

E------------------------------------------|

G----------------------------------------------------------------

D----------------------------------------------------------------

A---5--5-3-------3-5-5-5-3-------3-5-5-5-3-------3-5-5-5-3-------

E----------5-5-5-----------5-5-5-----------5-5-5-----------5-5-5-

G--------------------------------------------------

D-----3-5-5-5-3-------3-5-5-5-3--------------------

A---5-----------5-5-5-----------5-5-5--3---5-5-5-3-

E----------------------------------------5---------

G-----------------------------------------------------------------------|

D------------------------------7--------5-------------------------------|

A---------3-5-5-3----------4-7------2-5----5--5-3-------3-5-5-5-3-------|

E---5-5-5---------5-5-3--5--------3---------------5-5-5-----------5-5-5-|

G----------------------------------------5-|

D---------------------3-3-3-3--5-5-5-5h7---|

A---5-5-5-5--3-3-3-3-----------------------|

E------------------------------------------|

G-----------------------------------------------------------------5-----------

D-------------------------------------------------------------3-7---7-5-7-5-3-

A---5--5-3-------3-5-5-5-3-------3---5-5-5-3-------3-5-5-5--5-----------------

E----------5-5-5-----------5-5-5---5---------5-5-5----------------------------

G----------------------------------------------------------------

D---5-5-5-3-------3-5-5-5-3--------------------------------------

A-----------5-5-5-----------5-5-3----5-5-5-3-------3-5-5-3-------

E---------------------------------5----------5-5-5---------5-5-3-

G--------------------------------------------------|

D---------7--------5-------------------------------|

A-----4-7------2-5----5--5-3-------3-5-5-5-3-------|

E---5--------3---------------5-5-5-----------5-5-5-|

G----------------------------------------5-|

D---------------------3-3-3-3--5-5-5-5h7---|

A---5-5-5-5--3-3-3-3-----------------------|

E------------------------------------------|

G----------------------------------------------------------------

D----------------------------------------------------------------

A---5--5-3-------3-5-5-5-3-------3---5-5-5-3-------3-5-5-3-------

E----------5-5-5-----------5-5-5---5---------5-5-5---------5-5-3-

G----------------------------------------------------------------

D---5-5-5-3-------3-5-5-5-3--------------------------------------

A-----------5-5-5-----------5-5-3----5-5-5-3-------3-5-5-3-------

E---------------------------------5----------5-5-5---------5-5-3-

G--------------------------------------------------|

D---------7--------5-------------------------------|

A-----4-7------2-5----5--5-3-------3-5-5-5-3-------|

E---5--------3---------------5-5-5-----------5-5-5-|

G--------------------------------------5-----5-|

D---------------------3-3-3-3--5-5-5h7---5h7---|

A---5-5-5-5--3-3-3-3---------------------------|

E----------------------------------------------|

G--------------------------------------------------------

D--------------------------------------------------------

A---5--5-3-----3-4-5-5-3-----3-4-5-5-3-----3-4-5-5-3-----

E----------5-5-----------5-5-----------5-5-----------5-5-

G---------------------------2-5-2---2----------------------------------

D---3-4-5-5-3-----3-4-5-5-3-------5---5-3------------------------------

A-------------5-5--------------------------5-5-5-3-----3-4-5-5-5-3-----

E--------------------------------------------------5-5-------------5-5-

G--------------------------------------------------|

D--------------7--------5--------------------------|

A---3------4-7------2-5----5-5-3-----3-4-5-5-3-----|

E-----5--5--------3--------------5-5-----------5-5-|

G--------------------------------------|

D---------------------3-3-3-3--5-5-5-5-|

A---5-5-5-5--3-3-3-3-------------------|

E--------------------------------------|

Get this song at:  amazon.com sheetmusicplus.com

Share your thoughts

0 Comments found