Beatles

Beatles - The End bass tab

Song: The End

Artist: Beatles

Album: Abbey Road

Tabbed By: Kenny Borders (kennyborders@hotmail.com)

G--------------|-------------------------| |

D--------------|-------------------------|-Drums-|

A---5-----7----|------4-5-6-7-9----7-5---| |

E-5-----5------|-5---7-----------------5-| |

G--------------|-------------------------| |

D--------------|-------------------------|-Drums-|

A---5-----7----|------4-5-6-7-9----7-5---| |

E-5-----5------|-5---7-----------------5-| |

After Second Drum Solo Play (x14)

G-----------------|-----------------|

D-----------------|-----------------| End on A-note

A-----------3---3-|-5-5-5-5---5-5-3-|

E-5-5-5-5-5---5---|-----------------|

Get this song at:  amazon.com

Share your thoughts

0 Comments found