Beatles

Beatles - Shes got a devil in her heart bass tab

Date: Thu, 11 Apr 2002 21:44:49 +0200 (CEST)

From: =?iso-8859-1?q?Jan=20Bj=F6rklund?=

Subject: b/beatles/shes_got_a_devil_in_her_heart.btab

Beatles_She's_got_a_devil_in_her_heart

TablEdited by Jan Bjorklund

Tuning : E A D G Time Signature: 4/4

|2-2-2-|------|0-0-------|0-|2-2-2-|------------|0-0-------|

|------|0-0-0-|----0-0-4-|--|------|0-0-0-0-2-4-|----0-0-4-|

|------|------|----------|--|------|------------|----------|

|------|------|----------|--|------|------------|----------|

|0-0---0-|2-2-2-|----2-----0-|0-0-------|------2-2-4-4-|----0-0---|

|----0---|------|0-4---0-2---|----0-0-4-|5-5-5---------|----------|

|--------|------|------------|----------|--------------|3-3-----2-|

|--------|------|------------|----------|--------------|----------|

|----0-----|----7-----|------2-2-4-4-|--0-0-|--0-0---|2-2---2-|

|--------0-|5-5-----4-|5-5-5---------|------|--------|----2---|

|3-3---3---|------5---|--------------|3-----|3-----3-|--------|

|----------|----------|--------------|------|--------|--------|

|----2-----|--|2-2-2-|----2-------|0-0-------|0-0---0-|2---------|

|0-0-------|0-|------|0-4---0-2-4-|----0-0-4-|----0---|----2---2-|

|------0-4-|--|------|------------|----------|--------|--3---4---|

|----------|--|------|------------|----------|--------|----------|

|----2-----0-|0-0-------|------2-2-4-4-|--0-0-|--0-0---|0-0-----|

|0-4---0-2---|----0-0-4-|5-5-5---------|------|------0-|----0-4-|

|------------|----------|--------------|3-----|3-------|--------|

|------------|----------|--------------|------|--------|--------|

|------2-2-4-4-|--0-0---|--0-0---0-|2-2---2-|----2-----|--|2-2-2-|

|5-5-5---------|--------|----------|----2---|0-0-------|0-|------|

|--------------|3-----2-|3-----3---|--------|------0-4-|--|------|

|--------------|--------|----------|--------|----------|--|------|

|------------|0-0-------|0-0---0-|2-2-2-|----2-----0-|0-0-------|

|0-0-0-0-2-4-|----0-0-4-|----0---|------|0-4---0-2---|----0-0-4-|

|------------|----------|--------|------|------------|----------|

|------------|----------|--------|------|------------|----------|

|------2-2-4-4-|----0-0---|----0-----|----7-----|------2-2-4-4-|

|5-5-5---------|----------|--------0-|5-5-----4-|5-5-5---------|

|--------------|3-3-----2-|3-3---3---|------5---|--------------|

|--------------|----------|----------|----------|--------------|

|--0-0-|--0-0---|2-2---2-|----2-----|--|2-2-2-|------------|

|------|--------|----2---|0-0-------|0-|------|0-0-0-0-2-4-|

|3-----|3-----3-|--------|------0-4-|--|------|------------|

|------|--------|--------|----------|--|------|------------|

|0-0-------|0-0---0-|2-2-2-|----2-----0-|0-0-------|0-0---0-|

|----0-0-4-|----0---|------|0-4---0-2---|----0-0-4-|----0---|

|----------|--------|------|------------|----------|--------|

|----------|--------|------|------------|----------|--------|

|2-2-2-|----2---|0-0-----|0-0-----0-|2-2---2-|----2-------|0-0---|

|------|0-4---0-|----0-4-|----0-0---|----2---|0-4---0-2-4-|----0-|

|------|--------|--------|----------|--------|------------|------|

|------|--------|--------|----------|--------|------------|------|

|0---0-||

|--0---||

|------||

|------||

Created with TablEdit http://www.tabledit.com/

Get this song at:  amazon.com

Share your thoughts

0 Comments found