Beatles

Beatles - Shes A Woman Bass guitar tab

-----------------------------------------------------

THE BEATLES - SHE'S A WOMAN (Lennon/McCartney) First

released on November 27th 1964 as the B

side of the I FEEL FINE single.

-----------------------------------------------------

Bass tab by:PJVillanueva

With a deceptive guitar start on the off beat and the

leading role of the bass, which makes the rest of the

instruments seem odd at times with its tonic placings,

this song is the first of many experiments that soon

would come (time signature changes, new sounds, higher

bass mixes, etc.) As in the case of LONG TALL SALLY and

I'M DOWN, Paul's high register hoarse singing makes him

sound like a black soul hawker. The cool sliding guitar

solo and the swinging pulse of the song give it a great

feel we'll soon hear again in ANOTHER GIRL.

My love don't give me presents

I know that she's no peasant

Only ever has to give me

love forever and forever

My love don't give me presents

Turn me on when I get lonely

People tell me that she's only foolin'

I know she isn't

She don't give boys the eye

She hates to see me cry

She is happy just to hear me

Say that I will never leave her

She don't give boys the eye

She will never make me jealous

Give me all the time as well as lovin'

Don't ask me why

She's a woman who understands

She's a woman who loves her man

My love don't give me presents

I know that she's no peasant

Only ever has to give me

Love forever and forever

My love don't give me presents

Turn me on when I get lonely

People tell me that she's only foolin'

I know she isn't

SOLO

My love don't give me presents

I know that she's no peasant

Only ever has to give me

Love forever and forever

My love don't give me presents

Turn me on when I get lonely

People tell me that she's only foolin'

I know she isn't.

She's a woman She's a woman

She's a woman She's a woman

She's a woman

GUITAR INTRO

00:00

x x x x

G|------- ------- ------- -------|------- ------- ------- -------|

D|-------------------------------|-------------------------------|

A|-------------------------------|-------------------------------|

E|-------------------------------|-------------------------------|

x x x xxx

G|------- ------- ------- -------|------- ------- ------- -------|

D|-------------------------------|-------------------------------|

A|-------------------------------|------------------------7-\\----|

E|-------------------------------|-------------------------------|

00:05

G|------- ------- ------- -------|------- ------- ------- -------|

D|-------------------------------|-------------------------------|

A|0---------------7-------5-P-4--|0---------------7-------5-P-4--|

E|-------------------------------|-------------------------------|

G|------- ------- ------- -------|------- ------- ------- -------|

D|-------------------------------|-------------------------------|

A|0---------------7-------5-P-4--|0---------------7-------5-P-4--|

E|-------------------------------|-------------------------------|

00:10

G|------- ------- ------- -------|------- ------- ------- -------|

D|-------------------------------|-------------------------------|

A|0---------------7-------5------|5-------5-------0--------------|

E|-------------------------------|-------------------------------|

My love don't give me presents

G|------- ------- ------- -------|------- ------- ------- -------|

D|-------------------------------|-------------------------------|

A|0---------------7-------5-P-4--|0---------------7-------5-P-4--|

E|-------------------------------|-------------------------------|

G|------- ------- ------- -------|------- ------- ------- -------|

D|-------------------------------|-------------------------------|

A|0---------------7-------0------|5-------5-------0--------------|

E|-------------------------------|-------------------------------|

I know that she's no peasant

G|------- ------- ------- -------|------- ------- ------- -------|

D|-------------------------------|-------------------------------|

A|0---------------7-------5-P-4--|0---------------7-------5-P-4--|

E|-------------------------------|-------------------------------|

00:21

G|------- ------- ------- -------|------- ------- ------- -------|

D|-------------------------------|-------------------------------|

A|5-------5---------------------3/5-------5----------------------|

E|----------------5-------5------|----------------5-------5------|

Only ever has to give me

G|------- ------- ------- -------|------- ------- ------- -------|

D|-------------------------------|-------------------------------|

A|5-------5---------------------3/5-------5---------------5------|

E|--------------4-5-------5------|----------------5--------------|

love forever and forever My

G|------- ------- ------- -------|------- ------- ------- -------|

D|-------------------------------|-------------------------------|

A|0---------------7-------0------|5-------5-------0--------------|

E|-------------------------------|-------------------------------|

love don't give me presents

G|------- ------- ------- -------|------- ------- ------- -------|

D|------------------------5-H-7--|------------------------7------|

A|0---------------7--------------|0---------------7--------------|

E|-------------------------------|-------------------------------|

00:32

G|------- ------- ------- -------|------- ------- ------- -------|

D|-------------------------------|-------------------------------|

A|7------------------------------|7-----------------------7------|

E|----------------7--------------|----------------7--------------|

turns me on when get lonely

I

G|------- ------- ------- -------|------- ------- ------- -------|

D|-------------------------------|-------------------------------|

A|5-------5----------------------|5-------5---------------5------|

E|--------------4/5-------5------|----------------5--------------|

People tell me that she's

only

G|------- ------- ------- -------|------- ------- ------- -------|

D|-------------------------------|-------------------------------|

A|0------------0--0-------0------|5---------------0--------------|

E|-------------------------------|-------------------------------|

foolin' I know she isn't

G|------- ------- ------- -------|------- ------- ------- -------|

D|----------------------5/7------|-------------------------------|

A|0---------------7--------------|0-------7-------7-------7------|

E|-------------------------------|-------------------------------|

00:43

G|------- ------- ------- -------|------- ------- ------- -------|

D|-------------------------------|----------------7--------------|

A|0---------------0-------0------|5-------7---------------7------|

E|-------------------------------|-------------------------------|

She don't give boys the eye

G|------- ------- ------- -------|------- ------- ------- -------|

D|7-----------------------5------|7------------7-----------------|

A|----------------7--------------|----------------7-------5------|

E|-------------------------------|-------------------------------|

G|------- ------- ------- -------|------- ------- ------- -------|

D|-------------------------------|-------------------------------|

A|0---------------7-------0------|5-------5-------0--------------|

E|-------------------------------|-------------------------------|

She hates to see me cry

G|------- ------- ------- -------|------- ------- ------- -------|

D|------------------------5------|-------------------------------|

A|0---------------7--------------|0---------------7-------0------|

E|-------------------------------|-------------------------------|

00:53

G|------- ------- ------- -------|------- ------- ------- -------|

D|-------------------------------|-------------------------------|

A|5------------------------------|5-------5---------------3------|

E|----------------5-------5------|----------------5--------------|

She is happy just to hear me

G|------- ------- ------- -------|------- ------- ------- -------|

D|-------------------------------|-------------------------------|

A|5-------5----5-----------------|5-------5----5----------5------|

E|----------------5-------5------|----------------5--------------|

Say that I will never leave her

G|------- ------- ------- -------|------- ------- ------- -------|

D|-------------------------------|-------------------------------|

A|0---------------0--------------|5---------------0--------------|

E|-------------------------------|-----------------------------4-|

She don't give boys the eye

G|------- ------- ------- -------|------- ------- ------- -------|

D|------------------------5------|7-----------------------7------|

A|----------------7--------------|----------------7--------------|

E|5------------------------------|-------------------------------|

01:04

G|------- ------- ------- -------|------- ------- ------- -------|

D|-------------------------------|-------------------------------|

A|7------------7-----------------|7-----------------------7------|

E|----------------7-------7------|----------------7--------------|

She will never make me jealous

G|------- ------- ------- -------|------- ------- ------- -------|

D|-------------------------------|-------------------------------|

A|5-------5----5-----------------|5-------5---------------5------|

E|----------------5-------5------|----------------5--------------|

Give me all the time as well

as

G|------- ------- ------- -------|------- ------- ------- -------|

D|-------------------------------|----------------7--------------|

A|0---------------0--------------|5-------5----------------------|

E|-------------------------------|-------------------------------|

lovin' don't ask me why

G|------- ------- ------- -------|------- ------- ------- -------|

D|7-----------------------5------|7------------------------------|

A|----------------7--------------|----------------7-------0------|

E|-------------------------------|-------------------------------|

01:15

G|------- ------- ------- -------|------- ------- ------- -------|

D|-------------------------------|4-------4---------------4------|

A|4-------4---------------4------|----------------4--------------|

E|----------------4--------------|-------------------------------|

She's a woman who understands

G|------- ------- ------- -------|------- ------- ------- -------|

D|-------------------------------|-------------------------------|

A|4-------4---------------4------|5-------5-------7-------7------|

E|----------------4--------------|-------------------------------|

She's a woman who loves her man

01:21

G|------- ------- ------- -------|------- ------- ------- -------|

D|-------------------------------|-------------------------------|

A|0---------------0--------------|5---------------0--------------|

E|-------------------------------|-----------------------------4-|

My love don't give presents

me

G|------- ------- ------- -------|------- ------- ------- -------|

D|------------------------7------|-------------------------------|

A|----------------7--------------|5-------7-------0--------------|

E|5------------------------------|-------------------------------|

G|------- ------- ------- -------|------- ------- ------- -------|

D|-------------------------------|-------------------------------|

A|0---------------7-------0------|5------------5--0--------------|

E|-------------------------------|-------------------------------|

I know that she's no peasant

G|------- ------- ------- -------|------- ------- ------- -------|

D|------------------------5------|7------------7----------7------|

A|0---------------7--------------|----------------7--------------|

E|-------------------------------|-------------------------------|

G|------- ------- ------- -------|------- ------- ------- -------|

D|-------------------------------|-------------------------------|

A|5------------5--0-------3------|5-------5----5--0-------3------|

E|-------------------------------|-------------------------------|

Only ever has to give me

G|------- ------- ------- -------|------- ------- ------- -------|

D|-------------------------------|-------------------------------|

A|5-------5----5--0-------3------|5-------5----5--0-------5------|

E|-------------------------------|-------------------------------|

love forever and forever

G|------- ------- ------- -------|------- ------- ------- -------|

D|------------------------5------|-------------------------------|

A|0---------------0----7---------|5------------5--0--------------|

E|-------------------------------|-------------------------------|

My love don't give me presents

G|------- ------- ------- -------|------- ------- ------- -------|

D|------------------------5------|-------------------------------|

A|0---------------7--------------|0------------0--7-------0------|

E|-------------------------------|-------------------------------|

G|------- ------- ------- -------|------- ------- ------- -------|

D|-------------------------------|-------------------------------|

A|7-------7----------------------|7-------7----7----------7------|

E|----------------7-------7------|----------------7--------------|

turns me on when get lonely

I

G|------- ------- ------- -------|------- ------- ------- -------|

D|-------------------------------|-------------------------------|

A|5-------5--------------------4/|5-------5---------------5------|

E|----------------5--------------|----------------5--------------|

People tell me that she's

only

G|------- ------- ------- -------|------- ------- ------- -------|

D|7------------------------------|-------------------------------|

A|----------------0--------------|5------------------------------|

E|-------------------------------|--------------4-5--------------|

foolin' I know she isn't

G|------- ------- ------- -------|------- ------- ------- -------|

D|-------------------------------|-------------------------------|

A|0------------0--0-------0------|7-------7---7---7-------7------|

E|-------------------------------|-------------------------------|

Woooooooooooooooooooooooooohhhh

SOLO

01:53

G|------- ------- ------- -------|------- ------- ------- -------|

D|-------------------------------|-------------------------------|

A|0-------0-------5-------7------|--------0---------------7------|

E|-------------------------------|-------------------------------|

Hooohh!

G|------- ------- ------- -------|------- ------- ------- -------|

D|-------------------------------|--------7----------------------|

A|0---------------5-------7------|0---------------0-------5------|

E|-------------------------------|-------------------------------|

G|------- ------- ------- -------|------- ------- ------- -------|

D|-------------------------------|-------------------------------|

A|5-------5----5--0-------3------|5---------------0-------7-/-9--|

E|-------------------------------|-------------------------------|

G|------- ------- ------- -------|------- ------- ------- -------|

D|7------------7----------5------|7-------7---------------7------|

A|----------------7--------------|----------------7--------------|

E|-------------------------------|-------------------------------|

G|------- ------- ------- -------|------- ------- ------- -------|

D|-------------------------------|--------4-------5-------6------|

A|7-----------------------7------|5------------------------------|

E|--------------6-7--------------|-------------------------------|

G|------- ------- ------- -------|------- ------- ------- -------|

D|------------------------5------|7------------7-----------------|

A|0---------------7--------------|----------------7--------------|

E|-------------------------------|-------------------------------|

02:09

G|------- ------- ------- -------|------- ------- ------- -------|

D|-------------------------------|4-------4---------------4------|

A|4-----------------------4------|----------------4--------------|

E|----------------4--------------|-------------------------------|

She's a woman who understands

G|------- ------- ------- -------|------- ------- ------- -------|

D|-------------------------------|-------------------------------|

A|4-----------------------4------|5-------5-----/-7-------7------|

E|----------------4--------------|-------------------------------|

She's a woman who loves her man

02:15

G|------- ------- ------- -------|------- ------- ------- -------|

D|-------------------------------|-------------------------------|

A|0---------------0--------------|5------------------------------|

E|-------------------------------|--------------4-5--------------|

My love don't give me presents

G|------- ------- ------- -------|------- ------- ------- -------|

D|------------------------5------|------------------------5------|

A|0---------------7--------------|0------------0--7--------------|

E|-------------------------------|-------------------------------|

G|------- ------- ------- -------|------- ------- ------- -------|

D|7-----------------------7------|-------------------------------|

A|----------------7--------------|5------------5--0--------------|

E|-------------------------------|-------------------------------|

I know that she's no peasant

G|------- ------- ------- -------|------- ------- ------- -------|

D|------------------------5------|7------------------------------|

A|0------------0--7--------------|----------------7-------0------|

E|-------------------------------|-------------------------------|

Only

02:25

G|------- ------- ------- -------|------- ------- ------- -------|

D|-------------------------------|-------------------------------|

A|5------------5--0-------3------|5-------5-------0-------3------|

E|-------------------------------|-------------------------------|

ever has to give me

G|------- ------- ------- -------|------- ------- ------- -------|

D|-------------------------------|-------------------------------|

A|5-------5----5--0-------3------|5-------5-------0-------5------|

E|-------------------------------|-------------------------------|

love forever and forever

G|------- ------- ------- -------|7------ ------- ------- -------|

D|------------------------7------|-------------------------------|

A|0---------------7--------------|-------------------------------|

E|-------------------------------|--------------4-5------------4-|

My love don't give presents

me

G|------- ------- ------- -------|------- ------- ------- -------|

D|------------------------5-H-7--|------------------------7------|

A|----------------7--------------|0------------0--7--------------|

E|5------------------------------|-------------------------------|

02:36

G|------- ------- ------- -------|------- ------- ------- -------|

D|-------------------------------|-------------------------------|

A|7-------7----7----------------5/7-------7---------------7------|

E|----------------7-------7------|----------------7--------------|

turns me on when get lonely

I

G|------- ------- ------- -------|------- ------- ------- -------|

D|-------------------------------|-------------------------------|

A|5-------5----5-----------------|5-------5---------------5------|

E|----------------5--------------|--------------4-5--------------|

People tell me that she's only

G|------- ------- ------- -------|------- ------- ------- -------|

D|-------------------------------|-------------------------------|

A|0---------------0--------------|5------------------------------|

E|-------------------------------|--------------4-5-------------4|

foolin' I know she isn't

G|------- ------- ------- -------|------- ------- ------- -------|

D|------------------------5------|7------------------------------|

A|----------------7--------------|----------------7--------------|

E|5-------5----------------------|------------------------------4|

She's a woman

02:47

G|------- ------- ------- -------|------- ------- ------- -------|

D|------------------------5------|------------------------5------|

A|----------------7--------------|0---------------7--------------|

E|5------------5-----------------|-------------------------------|

She's a

G|------- ------- ------- -------|------- ------- ------- -------|

D|------------------------5------|------------------------7------|

A|0---------------7--------------|0------------0--7--------------|

E|-------------------------------|-------------------------------|

woman She's a

G|------- ------- ------- -------|------- ------- ------- -------|

D|-------------------------------|-------------------------------|

A|5---------------0-------3------|5------------5--0-------5-/-7--|

E|-------------------------------|-------------------------------|

woman She's a

........................... Fade out ..........................

G|------- ------- ------- -------|------- ------- ------- -------|

D|------------------------5------|------------------------5------|

A|0---------------7--------------|0------------0--7--------------|

E|-------------------------------|-------------------------------|

woman She's a

...............................................................

G|------- ------- ------- -------|------- ------- ------- -------|

D|-------------------------------|-------------------------------|

A|7------------7----------7------|5------------------------------|

E|----------------7--------------|-------------------------------|

woman

.................................

B Bend

R Release

/ Slide up

\\ Slide down

H Hammer-on

P Pull-off

~ Vibrato

+ Harmonic

x Mute note

. Play note like a dot in standard notation

^ Ties two notes together

(. Pause

Added by tabs-database.com and our distinguished partners

Get this song at:  amazon.com

Share your thoughts

0 Comments found