Beatles

Beatles - Savoy Truffle bass tab

SAVOY TRUFFLE (Bassline)

As recorded by The Beatles

(From the 1968 Album THE BEATLES (WHITE ALBUM))

Words and Music by George Harrison

Transcribed by Slowhand

Gtr I (E A D G) - 'Paul McCartney'

Intro

Q=100

4/4 7/8 6/8 4/4

Gtr I

W E E E E E E E E E E E E E E E W E E E E E E E E

|----------|-----------------|---------------|--------|-----------------||

|----------|-----------------|---------------|--------|-----------------||

|----------|-7-7-7-------5-6-|-7-7-7---5-6-7-|--------|-7-7-7-------5-6-||

|----------|-----------7-----|-------7-------|--------|-------0-7-7-----||

Pre-Chorus

$

E E E E E E E E +Q E E E E Q E E E E E E E E E E E E E E E E

||------------------|-----------------|-----------------|-----------------|

||o-----------------|-----------------|-----------------|---------------7-|

||o-7-7-7---5-6-7-7-|-(7)--7---5-6-7--|-9-9-9-------7-8-|-9-9-9---7-8-9---|

||--------7---------|--------7--------|-------0-9-9-----|-------9---------|

+E E E E E E E E +E E E E E E E E E E E E E E E E E E E E E E E E

|-------------------|-------------------|-----------------|------------------|

|-(7)-7-5-5-4-4-----|-------------------|-----------------|-5-5-2-2----------|

|---------------7-5-|-(5)-5-4-4-2-2-----|---------5-5-7-7-|---------5-5-2-2--|

|-------------------|---------------5-4-|-3-3-7-7---------|------------------|

Chorus

E E E E E E E E E E E E E E E E E E E E E E E E E E E E E E E E

|-------------1-2-||---2-1-1---------|-----------------|------------------|

|-----1-1-4-4-----||---------4-------|-----------------|------------------|

|-2-2-------------||-------------5-6-|-7-7-7---5-7-7-5-|-7-7-7-5-7-7-5-5--|

|-----------------||-----------7-----|-------7---------|------------------|

1.

To Coda

E E E E E E E E E E E E H

|------------------|--------------|

|------------------|-------5------|

|------------------|-----5--------|

|-8-8-7-7-5-5-3-3--|-3-7----------|

7/8 6/8

E E E E E E E E E E E E E E E E E E Q.

|-----------------|---------------|-------------|

|-----------------|---------------|-------------|

|-7-7-7-------5-6-|-7-7-7---5-6-7-|-7-7---------|

|-----------7-----|-------7-------|-------------|

1st Verse

2.

4/4

E E E E E E E E E E E E H E E E E E E E E

|------------------||--------------||-----------------|

|-----------------o||-------5------||-----------------|

|-7-7-7-------5-6-o||---2-5--------||-7-7-5-5-4-4-----|

|-------0-7-7------||-3------------||-------------7-7-|

E E E E E E S S E Q. E E E +E E Q. E +Q Q E S S E S S E E E E

|-------------------|------------------|-----------------|---------------------|

|-----------------7-|------------------|-----------------|---------------------|

|---------7-7-7s9---|----------7-(7)-9-|-10----9-(9)-----|-7-7-7-5-5-5-4-4-----|

|-5-5-7-9-----------|-5----7s9---------|-----------------|-----------------7-7-|

E S S S S E +E E S S E Q. E E E +E E

|-------------------------|------------------|

|-----------------------7-|------------------|

|-----------7-(7)-7-7s9---|----------7-(7)-7-|

|-5-5-5-7s9---------------|-5----7s9---------|

Guitar Solo

Q. E +Q Q E E E E E E E S S

|-----------------||---------------------|

|-----------------||---------------------|

|-10----9-(9)-----||-7-7-7-7-7-7-7-7-5---|

|-----------------||---------------------|

E E E E E E E E E E E E E E E E E E E E E E E E E E E E E E E E

|-----------------|-----------------|-----------------|------------------|

|-----------------|-----------------|-----------------|------------------|

|-7---------------|-7-7-7-------5-6-|-7-7-7-------7-8-|-9-9-9-------7-8--|

|---0-0-0-0-0-0-0-|-------0-7-7-----|-------0-7-0-----|-------0-9-9------|

E E E E E E E E +E E E E E E E E E E E E E E E E E E E E E E E E

|-----------------|-------------------|-----------------|------------------|

|---------------7-|-(7)-7-5-5---------|-----------------|-------------2-2--|

|-9-9-7---7-8-9---|-----------9-9-7-7-|-5-5-------------|-----2-2-5-5------|

|-------9---------|-------------------|-----9-9-7-7-5-4-|-3-3--------------|

Chorus

E E E E E E E E E E E E E E E E E E E E E E E E E E E E E E E E

|-----------------|-----------------|-----------------||------------------|

|-5-5-2-2---------|-----1-1-4-4-6-7-|-9-8-7-6---------||------------------|

|---------5-5-2-2-|-2-2-------------|---------9-8-7-6-||-7-7-7---5-7-7----|

|-----------------|-----------------|-----------------||-------7-------7--|

2nd Verse

E E E E E E E E E E E E E E E E E E E E H E E E E E E E E

|-----------------|-----------------|--------------||------------------|

|-----------------|-----------------|-------5------||------------------|

|-7-7-7-5-7-7-5-5-|-3-3-2-2---------|-----5--------||-7-7-5-5-4-4------|

|-----------------|---------5-5-3-3-|-3-7----------||-------------7-7--|

E E E E E E S S E Q. E E E +E E Q. E +Q Q E S S E S S E E E E

|-------------------|------------------|-----------------|---------------------|

|-----------------7-|------------------|-----------------|---------------------|

|---------7-7-7s9---|----------7-(7)-9-|-10----9-(9)-----|-7-7-7-5-5-5-4-4-----|

|-5-5-7-9-----------|-5----7s9---------|-----------------|-----------------7-7-|

E S S S S E +E E S S E Q. E E E +E E

|-------------------------|------------------|

|-----------------------7-|------------------|

|-----------7-(7)-7-7s9---|----------7-(7)-7-|

|-5-5-5-7s9---------------|-5----7s9---------|

Q. E +Q Q E E E E E E E E

|-----------------|-----------------|

|-----------------|-----------------|

|-10----9-(9)-----|-7-7-7-7-7-7-7-7-|

|-----------------|-----------------|

Outro

D.S. al Coda &

E E E E E E E E E E E E H E E E E E E E E

|------------------||--------------|-----------------|

|------------------||-------5------|-----------------|

|-7----------------||---2-5--------|-7-7-7-7-7-7-7-7-|

|---0-0-0-0-0-0-0--||-3------------|-----------------|

E E E E E E E E E E E E E E E E E E E E H

|-----------------|-----------------|--------------*|

|-----------------|-----------------|-------5------*|

|-7-7-7-7-7-5-5-3-|-3-3-2-2---------|---2-5--------*|

|-----------------|---------5-5-3-3-|-3------------*|

Get this song at:  amazon.com

Share your thoughts

0 Comments found