Beatles

Beatles - Rock And Roll Music bass tab

ROCK AND ROLL MUSIC (Bassline)

As recorded by The Beatles

(From the 1963 Album BEATLES FOR SALE)

Words and Music by Chuck Berry

Arranged by The Beatles

Transcribed by Slowhand (http://www.instantpowertabs.de.vu)

Gtr I (E A D G) - 'Paul McCartney (Bass)'

Pre-Chorus Chorus

Q=166

4/4

Gtr I

W W E E E E E E E E E E E E E E E E

|----------|----------||------------------|-----------------|

|----------|----------||o---------2-2-4-2-|---------2-2-4-2-|

|----------|----------||o-0-0-4-4---------|-0-0-4-4---------|

|----------|----------||------------------|-----------------|

E E E E E E E E E E E E E E E E E E E E E E E E E E E E E E E E

|-----------------|-----------------|---------2-2---2-|---------2-2---2--|

|---------2-2-4-2-|---------2-2-4-2-|-0-0-4-4-----4---|-0-0-4-4-----4----|

|-0-0-4-4---------|-0-0-4-4---------|-----------------|------------------|

|-----------------|-----------------|-----------------|------------------|

E E E E E E E E E E E E E E E E E E E E E E E E E E E E E E E E

|-----------------|-----------------|-----1-1-4-4---4-|-----1-1-4-4---4--|

|---------2-2-4-2-|---------2-2---2-|-2-2---------6---|-2-2---------6----|

|-0-0-4-4---------|-0-0-4-4-----4---|-----------------|------------------|

|-----------------|-----------------|-----------------|------------------|

1.,2.,3.,4.

E E E E E E E E +E E E E E E E E E E E E E E E E Q Q H

|-----------------|-------------------|-----------------|------------||

|-2-2-2-2-2-2-2---|-----------2-2---2-|-2-2-2-2-2-2-2---|------------||

|---------------0-|-(0)-0-4-4-----4---|---------------0-|-0----------||

|-----------------|-------------------|-----------------|------------||

1st - 4th Verses

Q. E +Q Q Q. E +Q Q Q. E +Q Q Q. E +Q Q

|------1-(1)--4--|------1-(1)--4--|----------------|-----------------|

|-2--------------|-2--------------|-------------2--|-------------2---|

|----------------|----------------|-0----4-(4)-----|-0----4-(4)------|

|----------------|----------------|----------------|-----------------|

Q. E +Q Q Q. E +Q Q

|-------------2--|-------------2--|

|-0----4-(4)-----|-0----4-(4)-----|

|----------------|----------------|

|----------------|----------------|

5.

Q. E +Q Q Q Q H 5x Q E E Q Q

|------1-(1)--4--|-------------||----------------*|

|-2--------------|-2----------o||----------------*|

|----------------|------------o||----0-0-0-------*|

|----------------|-------------||----------------*|

Get this song at:  amazon.com sheetmusicplus.com

Share your thoughts

0 Comments found