Beatles

Beatles - Revolution bass tab

Beatles

Bass tab

Beatles - Revolution

tabed By Neal Farrell

the bass dosent play on the intro. It is all guitar.

(bass comes in on "You say you want.....)

G--------------------------------------------------------- (Verse 4 times)

D---------------------------------------------------------

A------------------------------5-55-5-55-5-55-5-55

E-5-55-5-55-5-55-5-55-----------------------------

G-----------------------------------------------------------------

D---------------------------------------------------------------

A--------------------2-22-2-22-2-22----------------------

E0----0----0----0-----------------------0-00-0-00-0-00

G--------------------------------------

D------------------------------------

A-----------------------------------

E3-2-2-2----0-0-0-0------------

G---------------------------------- (4 times)

D----------------------------------

A----------------5-55-5-55----

E-5-55-5-55------------------

After that you start over Listen to song for timming.

Get this song at:  amazon.com

Share your thoughts

0 Comments found