Beatles

Beatles - P s i love you bass tab

Date: Thu, 11 Apr 2002 09:33:47 +0300

From: "Jan Bjorklund"

Subject: b/beatles/p_s_i_love_you.btab

beatles_ps._i_love_you

Basstab by Jan Bjorklund, Finland

You are welcome to request for basstabs!

Fingering and positions as suggested by TablEdit, please use common sense!

TablEdited by Jan Bjorklund

Tuning : E A D G Time Signature: 4/4

|0-0-----|----2---|0-0-----|----2---|0-0-----|----2---|

|--------|0-0---0-|--------|0-0---0-|--------|0-0---0-|

|----4-4-|--------|----4-4-|--------|----4-4-|--------|

|--------|--------|--------|--------|--------|--------|

|----2-2-|----2---|----2---|----4---|----2---|2-2---2-|

|0-0-----|0-0-----|0-0---0-|2-2---2-|0-0---0-|----2---|

|--------|------0-|--------|--------|--------|--------|

|--------|--------|--------|--------|--------|--------|

|4-4---4-|2-2---2-|3-3---3-|3-3-3-5-|----2-----|----2---|

|----4---|----2---|----3---|--------|0-0-------|0-0-----|

|--------|--------|--------|--------|------0-4-|------0-|

|--------|--------|--------|--------|----------|--------|

|----2---|----4---|----2---|2-2---2-|4-4---4-|2-2---2-|

|0-0---0-|2-2---2-|0-0---0-|----2---|----4---|----2---|

|--------|--------|--------|--------|--------|--------|

|--------|--------|--------|--------|--------|--------|

|3-3---3-|3-3-3-5-|----2-----|----2---|0-0---0-|----2---|

|----3---|--------|0-0-------|0-0-----|----0---|0-0---0-|

|--------|--------|------0-4-|------0-|--------|--------|

|--------|--------|----------|--------|--------|--------|

|0-0---0-|----2---|0-0---0-|----2---|----2---|----2---|

|----0---|0-0---0-|----0---|0-0-----|0-0-----|0-0-----|

|--------|--------|--------|------0-|------0-|------0-|

|--------|--------|--------|--------|--------|--------|

E E E

q S E E q S E E q S E E q S E E q S E E q S E E

|----2---|----4---|----2---|2-2---2-|4-4---4-|2-2---2-|

|0-0---0-|2-2---2-|0-0---0-|----2---|----4---|----2---|

|--------|--------|--------|--------|--------|--------|

|--------|--------|--------|--------|--------|--------|

|3-3---3-|3-3-3-5-|----2-----|----2---|0-0---0-|----2---|

|----3---|--------|0-0-------|0-0-----|----0---|0-0---0-|

|--------|--------|------0-4-|------0-|--------|--------|

|--------|--------|----------|--------|--------|--------|

|0-0---0-|----2---|0-0---0-|----2---|----2---|----2---|

|----0---|0-0---0-|----0---|0-0-----|0-0-----|0-0-----|

|--------|--------|--------|------0-|------0-|------0-|

|--------|--------|--------|--------|--------|--------|

|----2---|----4---|----2---|2-2---2-|4-4---4-|2-2---2-|

|0-0---0-|2-2---2-|0-0---0-|----2---|----4---|----2---|

|--------|--------|--------|--------|--------|--------|

|--------|--------|--------|--------|--------|--------|

|3-3---3-|3-3-----|----2-----|--------|----2-----|--------|

|----3---|--------|0-0-------|0-0-----|0-0-------|0-0-----|

|--------|----1-3-|------0-4-|----1-3-|------0-4-|----1-3-|

|--------|--------|----------|--------|----------|--------|

|--2-|--|

|0---|0-|

|----|--|

|----|--|

Created with TablEdit http://www.tabledit.com/

Get this song at:  amazon.com sheetmusicplus.com

Share your thoughts

0 Comments found