Beatles

Beatles - Oh Darling bass tab

Date: Sat, 25 Oct 2003 23:59:26 +0200 (CEST)

From: "[iso-8859-1] Jan Björklund"

Subject: b/beatles/oh_darling.btab

Oh Darling.btab

Beatles

Basstab by Jan Bjorklund, Finland;

jani_bjorklund@yahoo.se

You are welcome to request for basstabs or standard notation!

Bienvenidos a pedirme transcripciones para el bajo!

TablEdited by Jan Bjorklund for Teri

Tuning : E A D G Time Signature: 6/8

tempo 86 | Oh darling | | please be-

|------------------------|------------------------|------------------------|

|------------------------|------------------3/4---|2---------------0---1---|

|------------------------|0-----------------------|------------3-----------|

|------------------------|------------------------|------------------------|

live me | | | I'll never |

|------------------------|------------------------|------------------1/2---|

|2-----------------------|------------------------|4-----------------------|

|------------------3/4---|2-----------3/4-----2---|------------------------|

|------------------------|------------------------|------------------------|

do you no | harm | | |

|----------------2-------|------------------------|2-----------------------|

|4-----------------------|0-----------------3/4---|------------3/4---------|

|--------------------4---|------------------------|--------------------4---|

|------------------------|------------------------|------------------------|

Belive me when I tell you | I'll never |

|------------------------|------------0/1---------|------------------------|

|----------------4-------|2-------------------4---|----------------4-------|

|2-------------------2---|------------------------|2-------------------2---|

|------------------------|------------------------|------------------------|

do you no | harm | | |

|------------------------|------------------------|------------------------|

|2-------------------2---|------------------------|0---0---0---0---1---2---|

|------------------------|0---0---0---0---2---4---|------------------------|

|------------------------|------------------------|------------------------|

| | | Oh | darling

|------------------------|------------------------|2-----------------------|

|------------------------|2-----------------------|------------------3/4---|

|0---0---0---0-----------|------------------------|0-----------------------|

|----------------4---2---|------------------------|------------------------|

| if you leave me | | |

|------------------------|------------------5/6---|4---------------4-------|

|2---------------0---1---|2-----------------------|------------6-------6---|

|------------4-----------|------------------------|------------------------|

|------------------------|------------------------|------------------------|

I'll never | | make it a- lone |

|------------------------|6-----------------------|------------------------|

|4-----------------6/7---|------------7---4---2---|0-----------------3/4---|

|------------------------|------------------------|------------------------|

|------------------------|------------------------|------------------------|

| | Belive me when I beg you |

|2---------------2-------|------------------------|------------------0/1---|

|------------4-------4---|0---------------0/1-4---|2-----------------------|

|------------------------|------------------------|------------------------|

|------------------------|------------------------|------------------------|

don't ever | leave me | alone |

|------------------------|----------------0/1-4---|------------------------|

|----------------4-------|2-----------2-----------|------------------------|

|2-------------------2---|------------------------|0---0---0---0---2---4---|

|------------------------|------------------------|------------------------|

| | | | | When you

|------------------------|------------------------|------------------------|

|0---0---0---0---1---2---|------------------------|------------------------|

|------------------------|0---0---0---0---0---0---|0---0---0---4---4---4---|

|------------------------|------------------------|------------------------|

you didn't | | you didn't need me anymore

|------------------------|------------------------|------------------------|

|------------0-------0---|0-------0---0---1---2---|3-----------3-----------|

|0-----------------------|------------------------|--------------------3---|

|------------------------|------------------------|------------------------|

| | Well you know I nearly | broke down...

|------------------------|------------------------|------------------------|

|----------------3-------|------------------------|------------------------|

|------------3-------3---|0-----------2-------2---|3-----------4-------4---|

|1-----------------------|------------------------|------------------------|

| and cried | | | | |

|----------------2-------|------------------------|------------------------|

|------------3/4-----4---|2---------------2---3/4-|------------1-----------|

|0-----------------------|--------3---4-----------|2-----------------------|

|------------------------|------------------------|------------------------|

| | | | | |

|----------------4---4---|------------------------|----------------4---4---|

|4-----------5/6---------|------------1-----------|4-----------5/6---------|

|------------------------|2-----------------------|------------------------|

|------------------------|------------------------|------------------------|

| | | | | |

|------------------------|------------------------|------------------------|

|2-----------2-----------|3---3---3---3---3---3---|2-----------------------|

|------------------------|------------------------|------------------------|

|------------------------|------------------------|------------------------|

| Oh darling | | if you

|------------------------|------------------------|------------------------|

|------------------------|------------------3/4---|2---------------0---1---|

|------------------------|0-----------------------|------------3-----------|

|------------------------|------------------------|------------------------|

leave me | | | I'll never |

|------------------4/6---|4-----------------------|------------------1/2---|

|2-----------------------|------------------------|4-----------------------|

|------------------------|------------3/4-4---2---|------------------------|

|------------------------|------------------------|------------------------|

make it a- | lone | | |

|6-----------------------|------------------------|2-----------4---2-------|

|------------4---3---2---|0-----------------3/4---|--------------------4---|

|------------------------|------------------------|------------------------|

|------------------------|------------------------|------------------------|

Belive me when I tell you | I'll never |

|------------------------|--------------------4---|------------------------|

|----------------4-------|2-----------------------|----------------4-------|

|2-------------------2---|------------------------|2-------------------2---|

|------------------------|------------------------|------------------------|

do you no | harm | | |

|------------------0/1---|------------------------|------------------------|

|2-----------------------|------------------------|0---0---0---0---1---2---|

|------------------------|0---0---0---0---2---4---|------------------------|

|------------------------|------------------------|------------------------|

| | | When you told me |

|------------------------|----------------0---2---|------------------------|

|--------------------0---|0---0---1---2-----------|0-----------0-----------|

|0---0---0---3---4-------|------------------------|------------------------|

|------------------------|------------------------|------------------------|

| you didn't need me anymore | |

|------------------------|------------0/2---------|----------------0---0---|

|0-----------0---1---2---|3-----------------------|3-----------3-----------|

|------------------------|------------------------|------------------------|

|------------------------|------------------------|------------------------|

Well you know I nearly | fell down and died |

|------------------------|------------------------|------------------------|

|------------------------|------------------------|------------------------|

|0-----------2-----------|3-----------4-----------|0-------2---3---3---4---|

|------------------------|------------------------|------------------------|

| When you told me | you didn't |

|--------------------2---|------------------------|----------------4-------|

|0-------1---2---2-------|------------1-----------|4-----------4-------4---|

|------------------------|2-----------------------|------------------------|

|------------------------|------------------------|------------------------|

need me anymore | | Well you know I nearly

|------------------------|----------------0/1-4---|--------------------4---|

|------------0/1---------|4-------4---1-----------|------------2---4-------|

|2-----------------------|------------------------|2-------2---------------|

|------------------------|------------------------|------------------------|

| fell down and died | | Oh

|------------------------|------------------------|------------------------|

|------------------------|2-----------------------|0-----------------------|

|----0---3-------0---3---|------------------------|------------------------|

|1-----------1-----------|------------------------|------------------------|

darling | | please be- live me |

|------------------------|------------------------|--------------------5/6-|

|--------------------3/4-|------------------------|------------------------|

|0-----------------------|7---------------5---6---|7-----------------------|

|------------------------|------------8/9---------|------------------------|

| | I'll never | let you |

|4-----------0/1-0/1-0/1-|------------------------|------------------------|

|------------------------|------------------------|4-----------------------|

|------------------------|--------------------3/4-|------------4-------4---|

|------------------------|2-----------2-----------|------------------------|

down | Oh belive me|darling Belive me when I

|------------------------|2---------------2-------|------------------------|

|0-------------------3/4-|------------3/4-----4---|------------------4-----|

|------------------------|------------------------|2---------------2---2---|

|------------------------|------------------------|------------------------|

tell you | I'll never | do you no |

|--------------------0/1-|------------------------|----------------1---4---|

|2-----------------------|----------------4-------|2-----------0/2---------|

|------------------------|2-------------------2---|------------------------|

|------------------------|------------------------|------------------------|

harm | | | | |

|------------------------|------------------------|------------------------|

|------------------------|0---0---0---0---1---2---|------------------------|

|0---0---0---0---2---4---|------------------------|0-----------1-------0---|

|------------------------|------------------------|------------------------|

Transcribe! 6.0 transcription http://www.seventhstring.demon.co.uk/

Created with TablEdit http://www.tabledit.com/

http://www.geocities.com/jani_bjorklund/janis.html?1058405404377

Get this song at:  amazon.com sheetmusicplus.com

Share your thoughts

0 Comments found