Beatles

Beatles - Octopuss Garden bass tab

Date: Thu, 16 Jan 2003 17:22:47 +0100 (CET)

From: Jan Björklund

Subject: b/beatles/octopuss_garden.btab

beatles/octopus's_garden.btab

Basstab by Jan Bjorklund, Finland;

jani_bjorklund@yahoo.se

You are welcome to request for basstabs!

Bienvenidos a pedirme transcripciones para el bajo!

TablEdited by Jan Bjorklund

Tuning : E A D G Time Signature: 4/4

tempo 96| | | | | | |

|--------------------------------|--------------------------------|

|------------------------2-------|----------------------------1---|

|--------------------2-----------|--------------------2---4-------|

|--------------------------------|--------------------------------|

| | | | | | | |

|--------------------------------|--------------------------------|

|2-------------------------------|--------2---------------1-------|

|--------2-------4---------------|0---------------2---4-------2---|

|------------------------4-------|--------------------------------|

| I'd like to be... | | | | |

|--------------------------------|--------------------------------|

|2---------------2-------1-------|--------------------------------|

|--------2-----------------------|4---------------4-------2-------|

|--------------------------------|--------4-----------------------|

| | | | | | | |

|--------------------------------|--------------------------------|

|--------2---------------2-------|------------------------1-----1-|

|0---------------0-----------0---|2---2---2---2---2---4-----2-4---|

|--------------------------------|--------------------------------|

| He'd let us in... | | | |

|--------------------------------|--------------------------------|

|2---------------2-------1-------|--------------------------------|

|--------2-----------------------|4---------------4-------2-------|

|--------------------------------|--------4-----------------------|

| | | | | | | |

|--------------------------------|--------------------------------|

|--------2---------------2-------|--------------------1-------1---|

|0---------------0-----------0---|2---2---2---2---4-------2-4-----|

|--------------------------------|--------------------------------|

| I'd ask my friends.... | | | |

|--------------------------------|--------------------------------|

|--------------------------------|--------------------------------|

|4-------------------------------|----------------4-------2-------|

|--------------------------------|--------------------------------|

| | | | | | | |

|--------------------------------|--------------------------------|

|--------------------------------|----------------------------1---|

|0-------------------------------|2---2---2---2-------2---4-------|

|--------------------------------|--------------------------------|

| | I'd like to be... | | | |

|--------9-----------------------|--------6-----------------------|

|--------------------------------|--------------------------------|

|7---------------7-------6-------|4---------------4-------2-------|

|--------------------------------|--------------------------------|

| | | | | | | |

|--------2---2-------------------|----------------9-------9-6-----|

|----------------------------1---|--------9-------------------9---|

|0---------------2-------4-------|7-------------------------------|

|--------------------------------|--------------------------------|

| We would be warm... | | | |

|--------------------------------|--------------------------------|

|2---------------2-------1-------|--------------------------------|

|--------2-----------------------|4---------------4---4---2---2---|

|--------------------------------|--------4-----------------------|

| | | | | | | |

|--------------------------------|--------------------------------|

|--------2---------------2-------|--------4---------------1-------|

|0---------------0-----------0---|2---------------2---4-------2---|

|--------------------------------|--------------------------------|

| Resting our heads... | | | |

|--------------------------------|--------------------------------|

|2---------------2h3p2---1-------|--------------------------------|

|--------2-----------------------|4---------------4-------2-------|

|--------------------------------|--------4-----------------------|

| | | | | | | |

|--------------------------------|--------------------------------|

|--------2-------------------2---|----------------1---------------|

|0---------------0-------4-------|2-------2---4-----------2-------|

|--------------------------------|--------------------------------|

| We would sing... | | | | |

|----------------13--------------|--------------------------------|

|--------------------------------|--------------------------------|

|4-------------------------------|----------------4-------2-------|

|--------------------------------|--------------------------------|

| | | | | | | |

|--------------------------------|--------------------------------|

|--------------------------------|----------------------------1---|

|0-------------------------------|2---2---2-----------2---4-------|

|--------------------------------|--------------------------------|

| I'd like to be... | | | | |

|--------------------------------|--------------------------------|

|2---------------2-------1-------|--------------------------------|

|--------2-----------------------|4---------------4-------2-------|

|--------------------------------|--------4-----------------------|

| | | | | | | |

|--------------------------------|----------------7/--9---9-9-7---|

|--------2-----------------------|------------------------------9-|

|0---------------2---4---6-------|7-------------------------------|

|----------------------------7---|--------7-----------------------|

| S O L O | | | | | |

|--------------------------------|--------------------------------|

|7---7-----------7---------------|4---4-----------4---4-----------|

|--------7---------------7-------|--------4---------------4-------|

|--------------------------------|--------------------------------|

| | | | | | | |

|--------------------------------|--------------------1-----------|

|--------------------------------|2---2-----------2-4-----2-------|

|5---5-----------5---5-----------|--------2-----------------------|

|--------5---------------5-------|--------------------------------|

| | | | | | | |

|2---2-----------2---2-----------|--------------------------------|

|--------2---------------2-------|4---4-----------4---4---2-------|

|--------------------------------|--------4-----------------------|

|--------------------------------|--------------------------------|

| | | | | | | |

|--------------------------------|--------------------------------|

|0---0-----------2---2---2-0-----|----------------------------1---|

|--------0-------------------4-2-|0---0---0---0---2---2---4-4-----|

|--------------------------------|--------------------------------|

| We would|shout... | | | |

|--------------------------------|--------------------------------|

|2---------------2---2-----------|--------------------------------|

|--------2-------------------0---|4---------------4---4-------2---|

|--------------------------------|--------4-----------------------|

| | | | | | | |

|--------------------------------|--------------------------------|

|--------2---------------2-------|----------------1-----------1---|

|0---------------0-----------0---|2---2---4---4-------2---4-------|

|--------------------------------|--------------------------------|

| Oh, what|joy... | | | | |

|--------------------------------|--------------------------------|

|2---2-----------2-------1-------|--------------------------------|

|--------2-----------------------|4---------------4---4---2-------|

|--------------------------------|--------4-----------------------|

| | | | | | | |

|--------------------------------|--------------------------------|

|--------2---------------2-------|--------4-------------------1---|

|0---------------0---0-------4---|2---------------2-------4-------|

|--------------------------------|--------------------------------|

| We would|be... | | | | |

|--------------------------------|----------------6---6-----------|

|--------------------------------|------------6-------------------|

|4-------------------------------|------------------------2-------|

|--------------------------------|--------------------------------|

| | | | | | | |

|--------------------------------|--------------------------------|

|--------------------------------|----------------------------1---|

|0-------------------------------|2---2---2---2-2----22---4-------|

|--------------------------------|--------------------------------|

| I'd like to be... | | | | |

|--------------------------------|--------------------------------|

|2---------------2---2---1-------|--------------------------------|

|--------2-----------------------|4---------------4-------2-------|

|--------------------------------|--------4-----------------------|

| | | | | | | |

|--------------------------------|--------------------------------|

|--------2-------------------1---|2-------------------------------|

|0---------------2-------4-------|--------2-------4-------2-------|

|--------------------------------|--------------------------------|

| | | | | | | |

|--------------------------------|--------------------------------|

|------------2---------------4---|--------------------------------|

|0-------4-------2-------4-------|4-----------4-------------------|

|--------------------------------|------------------------0---0---|

| | | | | | | |

|--------------------------------|--------------------------------|

|------------------------1-------|2---------------------------1---|

|0-------4-------2---------------|--------------------------------|

|--------------------------------|--------------------------------|

| | | |

|--------------------------------|

|2-------------------------------|

|--------------------------------|

|--------------------------------|

Transcribe! 6.0 transcription http://www.seventhstring.demon.co.uk/

Created with TablEdit http://www.tabledit.com/

Get this song at:  amazon.com

Share your thoughts

0 Comments found