Beatles

Beatles - Nowhere Man bass tab

Nowhere Man – The Beatles

Submitted by; Val Strode

Email; vstrode@Hotmail.com

NOWHERE MAN

G--------------------------------------------------------------------------------------------------------/------------------------------------------------------

D-----------------------------------------------------------------------------------7-7-6-6------------/-------------------------6-6-7-8-9------------------

A---------------------------------------------------------------------------------------------9-7-------/--------------------7-7--------------7-7-7----------

E--------------------------------------------------------------------------------------------------9-----/------------------------------------------------------

E B A E F#m Am E

He's a real nowhere Man, sitting in his nowhere land, making all his nowhere plans for nobody.

||||||||||||||||||||||||||||||||||||||||||||||||||||||||||||||||||||||||||||||||||||||||||||||||||||||||||||||||||||||||||||||||||||||||||||||||||||||||||||||||||||||||||||||||||||||||||||||||||||||||||||||||||||||||||||||||||||||||||||||||||||

G--------------------------------------------------------------------------------------6----------------------------------------------------------------------

D------6-6-7-8-9------------------6-7---7-7-----6-6-----------------------6-6-9---9-7--7-7--6-6--------7-7-7---6-6----------------6-6-7-8-9-----

A-7-7---------------------6-6-9-9------------------------9-7------7---7-7----------------------------9-7------------------9-7---7-7-7-------------7-7

E-------------------7-7-7------------------------------------------9------------------------------------------9--------------------9------------------------

E B A E F#m Am E

1.3. Doesn't have a point of view, knows not where he's going to, isn't he a bit like you and me?

2. He's as blind as he can be, just sees what he wants to see, nowhere man can you see me at all?

||||||||||||||||||||||||||||||||||||||||||||||||||||||||||||||||||||||||||||||||||||||||||||||||||||||||||||||||||||||||||||||||||||||||||||||||||||||||||||||||||||||||||||||||||||||||||||||||||||||||||||||||||||||||||||||||||||||||||||||||||||

G------------------------------------------------------------------------------------------------------------------------

D-------------------6-6------6-6-------7-7--------7-----7---------6-6------6-6-----7-7------7-7-------------------

A-------7-7-7-----------6-6--------6-------7-7-----------------7------6-6-------6-------7-7------7--------------------

E------------------------------------------------------------------------------------------------------------------------

G#m A G#m A

1.3. Nowhere man, please listen, You don't know what you're missing,

2. Nowhere man, don't worry, Take your time, don't hurry,

||||||||||||||||||||||||||||||||||||||||||||||||||||||||||||||||||||||||||||||||||||||||||||||||||||||||||||||||||||||||||||||||||||||||||||||||||||||||||||||||||||||||||||||||||||||||||||||||||||||||||||||||||||||||||||||||||||||||||||||||||||

G-----------------------------------------------------------------------------------------------------------------------------

D------7-7-7--6-6------6-6----------------4------------------4------------------------------------------------------------

A-------------------6-6-----------6-------4----7-7-4-7-----4----7-7-4-7--------------------------------------------------

E----------------------------------------5------------------5-----------------------------------------------------------------

G#m F#m7 B7

1.3. Nowhere man, the world is at your command. (solo)

2. Leave it all, till somebody else, lends you a hand.

||||||||||||||||||||||||||||||||||||||||||||||||||||||||||||||||||||||||||||||||||||||||||||||||||||||||||||||||||||||||||||||||||||||||||||||||||||||||||||||||||||||||||||||||||||||||||||||||||||||||||||||||||||||||||||||||||||||||||||||||||||

Verse 1 solo;

G---------------------------------------------------------------------------------------------------------------------------------------------------------------

D------6-6-7-8-9------------------6-7---7-7-----6-6-----------------------6-6-9-6---7-7-7--6-6----------7-7-7-6-6---------------6-6-9-6-9--------

A-7-7---------------------6-6-9-6------------------------9-7------7---7-7-----------7-----------------9-7---------------9-7---7-7-7---------7777777

E-------------------7-7-7------------------------------------------9-------------------------------------------9------------------9---------------------------

E B A E F#m Am E

||||||||||||||||||||||||||||||||||||||||||||||||||||||||||||||||||||||||||||||||||||||||||||||||||||||||||||||||||||||||||||||||||||||||||||||||||||||||||||||||||||||||||||||||||||||||||||||||||||||||||||||||||||||||||||||||||||||||||||||||||||

G---------------------------------------------------------------------------------------------------------------------------------------------------------------

D------6-6-7-8-9------------------6-7---7-7-6-6----------------6-6-7-8-9-7--7-7-6-6---------7--7-7-6-6-----------------6-9-6-9-------------------

A-7-7---------------------6-6-9-9-----------------9-7---7--7-7---------------------------9-7--------------------9-7--7--7-7----------7—777--7------

E-------------------7-7-7-------------------------------9-----------------------------------------7---------------------9-------------------------------------

E B A E F#m Am E

He's a real nowhere Man, sitting in his nowhere land, making all his nowhere plans for nobody.

|||||||||||||||||||||||||||||||||||||||||||||||||||||||||||||||||||||||||||||||||||||||||||||||||||||||||||||||||||||||||||||||||||||||||||||||||||||||||||||||||||||||||||||||||||||||||||||||||||||||||||||||||||||||||||||||||||||||||||||||||||||

G------------------------------------------------------------------------------------------------------------------------------------------

D-7r----6--------------7r---6-------------------------------------------7-6---------------7-6-----------------------------6-9-6------

A---------------9-7--------------9-7-------------7r7-77-7777-7777--------9-7--------------9-7-----------------7-77-----------7--

E--------------------9----------------9-------------------------------------------------9---------------9---------------------------------

A Am E A Am E

Making all his nowhere plans for nobody. Making all his nowhere plans for nobody.

/ - repeat phrase

s- slide

| - measure marker

r – rest

(x) – next note to play on next line

Get this song at:  amazon.com

Share your thoughts

0 Comments found