Beatles

Beatles - Not A Second Time bass tab

beatles_not_a_second_time

TablEdited by Jan Bjorklund

Tuning : E A D G Time Signature: 4/4

|------|------|------|------|------|------|--------|------|------|

|------|------|------|------|0-0-0-|------|0-0-0-0-|------|------|

|------|------|------|------|------|------|--------|------|------|

|3-3-3-|0-0-0-|3-3-3-|0-0-0-|------|3-3-3-|--------|3-3-3-|0-0-0-|

|------|------|------|------|------|------|------|------|------|

|------|------|0-0-0-|------|0-0-0-|------|------|------|------|

|------|------|------|0-0-0-|------|0-0-0-|2-2-2-|------|------|

|3-3-3-|0-0-0-|------|------|------|------|------|3-3-3-|0-0-0-|

|------|------|------|------|--------|--|--|----|--|--|----|

|------|------|------|0-0-0-|--------|--|--|----|--|--|----|

|0-0-0-|0-0-0-|2-2-2-|------|------2-|--|0-|2-2-|--|--|0-0-|

|------|------|------|------|0-0-0---|0-|--|----|3-|0-|----|

|----|--|--|--|--|------|------|------|------|------|------|

|----|--|0-|--|--|------|------|------|------|0-0-0-|------|

|0-0-|2-|--|--|--|------|------|------|------|------|------|

|----|--|--|0-|0-|3-3-3-|0-0-0-|3-3-3-|0-0-0-|------|3-3-3-|

|--------|------|------|------|------|------|------|------|------|

|0-0-0-0-|------|------|------|------|0-0-0-|------|0-0-0-|------|

|--------|------|------|------|------|------|0-0-0-|------|0-0-0-|

|--------|3-3-3-|0-0-0-|3-3-3-|0-0-0-|------|------|------|------|

|------|------|------|------|------|------|------|--------|--------------|

|------|------|------|------|------|------|0-0-0-|--------|--0-0---------|

|2-2-2-|------|------|0-0-0-|0-0-0-|2-2-2-|------|------2-|--------------|

|------|3-3-3-|0-0-0-|------|------|------|------|0-0-0---|0-----0-0-2-2-|

|------|------|------|------|------|------|----|

|------|------|------|------|------|------|----|

|------|------|------|------|------|------|----|

|3-3-3-|0-0-0-|3-3-3-|0-0-0-|3-3-3-|0-0-0-|3-3-|

Created with TablEdit http://www.tabledit.com/

Get this song at:  amazon.com sheetmusicplus.com

Share your thoughts

0 Comments found