Beatles

Beatles - Money that s what i wan t live version bass tab

Money(That's What I Wan't)Live version.btab

Beatles

TablEdited by Jan Bjorklund for John

Tuning : E A D G Time Signature: 4/4

tempo 136 | | | | | |

|--------------------------------|--------------------------------|

|--------------------------------|--------------------------------|

|--------------------------------|--------------------------------|

|--------------------------------|--------------------------------|

| | | | | | | |

|--------------------------------|--------------------------------|

|--------5---6---7-------5-------|5-------5---7-------5-------5---|

|7---7-----------------------7---|----7-------------------7-------|

|--------------------------------|--------------------------------|

| | | | | | | |

|--------------------------------|----------------------------9---|

|9-------9---9-------9---9---9---|7---7---7---7-------7---9-------|

|--------------------------------|--------------------------------|

|--------------------------------|--------------------------------|

| | | | | | | |

|--------------------------------|--------------------------------|

|--------5---6---7-------5-------|----9---9---9---9---9---9---9---|

|7---7-----------------------7---|--------------------------------|

|--------------------------------|--------------------------------|

| | | | | | | |

|--------------------------------|--------------------------------|

|--------------------------------|--------------------9---7---5---|

|7-------------------------------|--------------------------------|

|--------------------------------|--------------------------------|

| | | | | | | |

|--------------------------------|--------------------------------|

|--------------------------------|--------------------7---7---5---|

|7-------------------------------|--------------------------------|

|--------------------------------|--------------------------------|

| | | | | | | |

|--------------------------------|--------------------------------|

|7-------7---7---7---7---7---7---|7-------7---7---7---9---7---5---|

|--------------------------------|--------------------------------|

|--------------------------------|--------------------------------|

| | | | | | | |

|--------------------------------|--------------------------------|

|--------------------------------|--------------------5---7---8---|

|7-------7-------5---7---7---7---|7-------7---7---7---------------|

|--------------------------------|--------------------------------|

| | | | | | | |

|--------------------------------|------------------------7---9---|

|9-------9-------9---9---9---9---|7---7---7---7---7---9-----------|

|--------------------------------|--------------------------------|

|--------------------------------|--------------------------------|

| | | | | | | |

|--------------------------------|--------------------------------|

|--------------------------------|9---9---9---9---9---9---9---7---|

|7-------7-------7---7---7---7---|--------------------------------|

|--------------------------------|--------------------------------|

| | | | | | | |

|--------------------------------|--------------------------------|

|--------------------------------|--------------------7---7---5---|

|7-------------------------------|--------------------------------|

|--------------------------------|--------------------------------|

| | | | | | | |

|--------------------------------|------------------------7h9-----|

|--------------------------------|--------------------9-----------|

|7-------------------------------|--------------------------------|

|--------------------------------|--------------------------------|

| | | | | | | |

|--------------------------------|------------------------7---9---|

|7-------7-------7---7---7---7---|7-----------7-------9-----------|

|--------------------------------|--------------------------------|

|--------------------------------|--------------------------------|

| | | | | | | |

|--------------------------------|--------------------------------|

|--------------------------------|--------------------6---7---8---|

|7-------7-------5---7---7---7---|7---7---7---7---7---------------|

|--------------------------------|--------------------------------|

| | | | | | | |

|--------------------------------|------------------------7---9---|

|9-------9---9-------9---9---8---|7---7---7---7---7---9-----------|

|--------------------------------|--------------------------------|

|--------------------------------|--------------------------------|

| | | | | | | |

|--------------------------------|--------------------------------|

|----------------------------7---|9---9---9---9---9---9---7---5---|

|7-------7---7---7---7---7-------|--------------------------------|

|--------------------------------|--------------------------------|

| | | | | | | |

|--------------------------------|--------------------------------|

|--------------------------------|--------------------7---7---5---|

|7-------------------------------|--------------------------------|

|--------------------------------|--------------------------------|

| | | | | | | |

|--------------------------------|--------------------------------|

|--------------------------------|--------------------------------|

|7-------------------------------|------------------------5---7---|

|--------------------------------|--------------------7-----------|

| | | | | | | |

|--------------------------------|--------------------------------|

|7-------7---7---7---7---7---7---|7-------7---7---7---9---7---5---|

|--------------------------------|--------------------------------|

|--------------------------------|--------------------------------|

| | | | | | | |

|--------------------------------|--------------------------------|

|--------------------------------|--------------------6---7---8---|

|7-------7---7---5---7---7---7---|7---7---7---7---7---------------|

|--------------------------------|--------------------------------|

| | | | | | | |

|--------------------------------|------------------------7---9---|

|9---9---9---9---9---9---9---9---|7---7---7---7---7---9-----------|

|--------------------------------|--------------------------------|

|--------------------------------|--------------------------------|

| | | | | | | |

|--------------------------------|--------------------------------|

|--------------------------------|9---9---9---9---9---9---9---10--|

|7---7---7---7---7---7---7---7---|--------------------------------|

|--------------------------------|--------------------------------|

| | | | | | | |

|--------------------------------|--------------------------------|

|--------5---6---7-------5-------|5-------5---7-------5---5-------|

|7---7-----------------------7---|----7-----------------------7---|

|--------------------------------|--------------------------------|

| | | | | | | |

|--------------------------------|--------------------------------|

|--------5---6---7-------5-------|5-------5---7-------5-------5---|

|7---7-----------------------7---|----7-------------------7-------|

|--------------------------------|--------------------------------|

| | | | | | | |

|--------------------------------|--------------------------------|

|9---9---9---7---9---9---9-------|7-------7---7-------7---7---9---|

|--------------------------------|--------------------------------|

|--------------------------------|--------------------------------|

| | | | | | | |

|--------------------------------|----------------------------9---|

|--------5---6---7-------5-------|----9---9---9---9---10--11------|

|7---7-----------------------7---|--------------------------------|

|--------------------------------|--------------------------------|

| | | | | | | |

|--------------------------------|--------------------------------|

|--------------------------------|--------------------9---7---5---|

|7-------------------------------|--------------------------------|

|--------------------------------|--------------------------------|

| | | | | | | |

|--------------------------------|--------------------------------|

|--------------------------------|--------------------9---7---5---|

|7-------------------------------|--------------------------------|

|--------------------------------|--------------------------------|

| | | | | | | |

|--------------------------------|--------------------------------|

|7-------7-------7---7---7---7---|7-------7---7-------9---7/6-5---|

|--------------------------------|--------------------------------|

|--------------------------------|--------------------------------|

| | | | | | | |

|--------------------------------|--------------------------------|

|--------------------------------|--------------------6---7---9---|

|7-------7-------7---7---7-------|7-------7---7-------------------|

|--------------------------------|--------------------------------|

| | | | | | | |

|--------------------------------|------------------------7---9---|

|9-------7---9-------9---9---9---|7---7---7---7---7---9-----------|

|--------------------------------|--------------------------------|

|--------------------------------|--------------------------------|

| | | | | | | |

|--------------------------------|--------------------------------|

|--------------------------------|9---9---9---9---9---9---9---9---|

|7-------6---7---7---7---6---7---|--------------------------------|

|--------------------------------|--------------------------------|

| | | | | | | |

|--------------------------------|--------------------------------|

|----------------------------9---|--------------------9---7---6---|

|7---7---7---7---7---7---7-------|7---7---7---7---7---------------|

|--------------------------------|--------------------------------|

| | | | | | | |

|--------------------------------|--------------------------------|

|--------------------------------|--------------------9---7---7---|

|7---7---7---7---7---7---7---7---|7---7---7---7---7---------------|

|--------------------------------|--------------------------------|

| | | | | | | |

|--------------------------------|--------------------------------|

|7-------7---7---7---7---7---7---|7---7---7---7---7---9---7---6---|

|--------------------------------|--------------------------------|

|--------------------------------|--------------------------------|

| | | | | | | |

|--------------------------------|--------------------------------|

|--------------------------------|--------------------6---7---8---|

|7-------7---7---6---7---7---7---|7-------7---7---7---------------|

|--------------------------------|--------------------------------|

| | | | | | | |

|--------------------------------|------------------------7---9---|

|9-------9---9---9---9---9---9---|7---7---7---7---7---9-----------|

|--------------------------------|--------------------------------|

|--------------------------------|--------------------------------|

| | | | | | | |

|--------------------------------|--------------------------------|

|--------------------------------|9---9---9---9---9---9---9---9---|

|7---7---7---7---7---7---7---7---|--------------------------------|

|--------------------------------|--------------------------------|

| | | | | | | |

|--------------------------------|--------------------------------|

|--------------------------------|--------------------9---7---6---|

|7---7---7---7---7---7---6h7-7---|7---7---7---7---7---------------|

|--------------------------------|--------------------------------|

| | | | | | | |

|--------------------------------|--------------------------------|

|--------------------------------|--------------------9---7---7---|

|7---7---7---7---7---7---6h7-7---|7---7---7---7---7---------------|

|--------------------------------|--------------------------------|

| | | | | | | |

|--------------------------------|--------------------------------|

|7-------7-------7---7---7---7---|7---7---7---7---7---9---7---6---|

|--------------------------------|--------------------------------|

|--------------------------------|--------------------------------|

| | | | | | | |

|--------------------------------|--------------------------------|

|--------------------------------|--------------------6---7---8---|

|7-------7-------6h7-7---7---7---|7-------7---7---7---------------|

|--------------------------------|--------------------------------|

| | | | | | | |

|--------------------------------|--------------------------------|

|9-------9---9---9---9---9---9---|7-------7---7---7---7---7---7---|

|--------------------------------|--------------------------------|

|--------------------------------|--------------------------------|

| | | | | | | |

|--------------------------------|--------------------------------|

|--------5---6---7---5-----------|--------------------------------|

|7---7-------------------7---5---|7---------------7-------------7-|

|--------------------------------|----------------------------7---|

| | | |

|--------------------------------|

|--------------------------------|

|--7-----7-------7---------------|

|7-------------------------------|

Created with TablEdit http://www.tabledit.com/

Get this song at:  amazon.com

Share your thoughts

0 Comments found