Beatles

Beatles - Love Me Do bass tab

Date: Thu, 11 Apr 2002 09:31:58 +0300

From: "Jan Bjorklund"

Subject: b/beatles/love_me_do.btab

beatles_love_me_do

Basstab by Jan Bjorklund, Finland

You are welcome to request for basstabs!

Fingering and positions as suggested by TablEdit, please use common sense!

TablEdited by Jan Bjorklund

Tuning : E A D G Time Signature: 4/4

|0---|--0-|0---|--0-|0---|--0-|0---|0---|0---|--0-|0---|

|--0-|----|--0-|----|--0-|----|--0-|--0-|--0-|----|--0-|

|----|3---|----|3---|----|3---|----|----|----|3---|----|

|----|----|----|----|----|----|----|----|----|----|----|

|--0-|0---|--0-|--0-|--0-|--|0---|--0-|0---|--0-|0---|--0-|

|----|--0-|----|----|----|--|--0-|----|--0-|----|--0-|----|

|3---|----|3---|3---|3---|3-|----|3---|----|3---|----|3---|

|----|----|----|----|----|--|----|----|----|----|----|----|

|0---|--0-|0---|--0-|--0-|--0-|--|0---|--0-|0---|0-0-----|

|--0-|----|--0-|----|----|----|--|--0-|----|--0-|----4-2-|

|----|3---|----|3---|3---|3---|3-|----|3---|----|--------|

|----|----|----|----|----|----|--|----|----|----|--------|

|--2-|--2-|--0-|0---|--2-|--2-|--0---|0---0-|0---|--0-|

|0---|0---|----|--0-|0---|0---|------|--0---|--0-|----|

|----|----|3---|----|----|----|3---3-|------|----|3---|

|----|----|----|----|----|----|------|------|----|----|

|0---|--0-|0---|--0-|--0-|--0-|--|0---|--0-|0---|0-0-----|

|--0-|----|--0-|----|----|----|--|--0-|----|--0-|----4-2-|

|----|3---|----|3---|3---|3---|3-|----|3---|----|--------|

|----|----|----|----|----|----|--|----|----|----|--------|

|--2-|--2---|--0-|0---|--2-|--2-|--0-|0---|0---|0---|0---|

|0---|0---0-|----|--0-|0---|0---|----|--0-|--0-|--0-|--0-|

|----|------|3---|----|----|----|3---|----|----|----|----|

|----|------|----|----|----|----|----|----|----|----|----|

|0---|0---|--0-|0---|--0-|0---|--0-|--0-|--0-|--|0---|--0-|

|--0-|--0-|----|--0-|----|--0-|----|----|----|--|--0-|----|

|----|----|3---|----|3---|----|3---|3---|3---|3-|----|3---|

|----|----|----|----|----|----|----|----|----|--|----|----|

|0---|--0-|0---|--0-|0---|--0-|0---|--0-|0---|--0-|0---|

|--0-|----|--0-|----|--0-|----|--0-|----|--0-|----|--0-|

|----|3---|----|3---|----|3---|----|3---|----|3---|----|

|----|----|----|----|----|----|----|----|----|----|----|

|--0-|0---|--0-|0---|--0-|0---|--0-|0---|--0-|0---||

|----|--0-|----|--0-|----|--0-|----|--0-|----|--0-||

|3---|----|3---|----|3---|----|3---|----|3---|----||

|----|----|----|----|----|----|----|----|----|----||

Created with TablEdit http://www.tabledit.com/

Get this song at:  amazon.com sheetmusicplus.com

Share your thoughts

0 Comments found