Beatles

Beatles - Long Long Long guitar tab

Capo 3rd Fret

Intro

Em G Em D A

E---------------------------------------------0-0-0-0-0-0--

B-----------------------------------------3---2-2-2-2-2-2--

G-----------h--------------------h-----2------2-2-2-2-2-2--

D-------h--0-2-------2-------h--0-2-0---------2-2-2-2-2-2--

A---h--0-2--------0------h--0-2---------------0-0-0-0-0-0--

E--0-3---------3--------0-3--------------------------------

Verses

(Capo 3rd Fret)

(Bb)G-320003

(Am)F#m-244222

(Gm)Em-022000

(F)D-xx0232

(C)A-x02220

(C7)A7-x02020

G F#m Em D

It's been a long long long time

E-------------------2--

B-------------------3--

G----------h-----2-----

D------h--0-2-0--------

A--h--0-2--------------

E-0-3------------------

A Em D A

How could I ever have lost you

Em D A A7

When I loved you

2nd Verse

It took a long long long time

Now I'm so happy I found you

How I love you

Bridge

G D A Em

So many tears I was searching

G D A Em G A A

So many tears I was wasting oh oh

3rd verse

Now I can see you be you

how can I ever misplace you

how I want you

Coda

Em D A

oh I love you

Em D Bb

you know that I need you

Em D A A

Ooh I love you

Get this song at:  amazon.com

Share your thoughts

0 Comments found