Beatles

Beatles - It Wont Be Long bass tab

Date: Thu, 11 Apr 2002 21:42:02 +0200 (CEST)

From: =?iso-8859-1?q?Jan=20Bj=F6rklund?=

Subject: b/beatles/it_wont_be_long.btab

Beatles_It Won't Be Long

TablEdited by Jan Bjorklund

Tuning : E A D G Time Signature: 4/4

|--------|--------|--------|--------|--------|--------|

|--------|--------|2-2-2-2-|2-2-2-2-|--------|--------|

|4-4-4-4-|4-4-4-4-|--------|--------|4-4-4-4-|0-0-0-2-|

|--------|--------|--------|--------|--------|--------|

|------|----------|----|--------|------|--------|--------|

|2-2---|2-2-------|----|--------|2-2---|2-2---2-|--------|

|----2-|----2-----|--2-|3-3-3-3-|----2-|----2---|3-3-3-3-|

|------|------3-4-|0---|--------|------|--------|--------|

|------|----------4-----|--------|--------|--------|--------|

|2-2---|2-2-2-2-2-------|--------|--------|2-2-2-2-|2-2-1-2-|

|----2-|--------------2-|4-4-4-4-|4-4-4-4-|--------|--------|

|------|------------4---|--------|--------|--------|--------|

|--------|--------|------|--------------|--------|------|

|--------|--------|2-2---|2-2-1---------|------2-|1-1-1-|

|4-4-4-4-|0-0-0-2-|----2-|------4-2-----|----2---|------|

|--------|--------|------|----------3-4-|0-0-----|------|

|--------|--------|------|------|----------------|----------|

|0-0-0-0-|--------|------|------|4-4-4-4-4-4-4-4-|----------|

|--------|4-4-4-4-|0-0-0-|2-2-2-|----------------|2-2-2-2-2-|

|--------|--------|------|------|----------------|----------|

|--------|--------|------|--------|--------|------------|

|2-2-----|--------|2-2---|2-2---2-|--------|2-2---2-2-2-|

|----2-2-|3-3-3-3-|----2-|----2---|3-3-3-3-|----2-------|

|--------|--------|------|--------|--------|------------|

|----------------|--------|--------|--------|--------|--------|

|2-2-2-2-2-------|--------|--------|2-2-2-2-|2-2-1-2-|--------|

|----------2---2-|4-4-4-4-|4-4-4-4-|--------|--------|4-4-4-4-|

|------------4---|--------|--------|--------|--------|--------|

|--------|------|--------------|--------|--------|--------|

|--------|2-2---|2-2-1---------|------2-|1-1-1-1-|0-0-0-0-|

|0-0-0-2-|----2-|------4-2-----|----2---|--------|--------|

|--------|------|----------3-4-|0-0-----|--------|--------|

|--------|------|--------|----------------|----------|--------|

|--------|------|--------|4-4-4-4-4-4-4-4-|----------|2-2-----|

|4-4-4-4-|0-0-0-|2-2-2-2-|----------------|2-2-2-2-2-|----2-2-|

|--------|------|--------|----------------|----------|--------|

|--------|------|--------|--------|------------|----------------|

|--------|2-2---|2-2---2-|--------|2-2---2-2-2-|2-2-2-2-2-------|

|3-3-3-3-|----2-|----2---|3-3-3-3-|----2-------|----------2---2-|

|--------|------|--------|--------|------------|------------4---|

|--------|--------|--------|--------|--------|--|0-----|

|--------|--------|2-2-2-2-|2-2-1-2-|--------|--|--4-3-|

|4-4-4-4-|4-4-4-4-|--------|--------|4-4-4-4-|0-|------|

|--------|--------|--------|--------|--------|--|------|

|--|

|2-|

|--|

|--|

Created with TablEdit http://www.tabledit.com/

Get this song at:  amazon.com sheetmusicplus.com

Share your thoughts

0 Comments found