Beatles

Beatles - I Wanna Hold Your Hand bass tab

Date: Thu, 11 Apr 2002 21:35:34 +0200 (CEST)

From: =?iso-8859-1?q?Jan=20Bj=F6rklund?=

Subject: b/beatles/i_wanna_hold_your_hand.btab

Beatles_I_want_to_hold_your_hand

TablEdited by Jan Bjorklund

Tuning : E A D G Time Signature: 4/4

|------|------------|------------|--------------|--------------|

|--2-0-|0-0-0---2-0-|0-0-0---2-0-|0-0-0-0-0-0-0-|0-0-0-0-0-0-0-|

|3-----|------3-----|------3-----|--------------|--------------|

|------|------------|------------|--------------|--------------|

|0-0---0-|--------|------|--------|0-0---0-|--------|------|

|----0---|0-0-0-1-|2-2-2-|------2-|----0---|0-0-0-1-|2-2-2-|

|--------|--------|------|2-2-2---|--------|--------|------|

|--------|--------|------|--------|--------|--------|------|

|--------|--------|----4-4-|----2-2-|0-0-----0-|0-0-0-|

|--------|----0-0-|5-5-2-2-|----0-0-|----0-0---|0-----|

|2-2-2-2-|3-3-----|--------|3-3-----|----------|------|

|--------|--------|--------|--------|----------|------|

|--------|------|--------|0-0-0-|--------|------|----------------|

|0-0-0-1-|2-2-2-|------2-|------|0-0-0-1-|2-2-2-|----------------|

|--------|------|2-2-2---|------|--------|------|2-2-2-2-2-2-2-2-|

|--------|------|--------|------|--------|------|----------------|

|0-2-|--4-|0-2-|0-0---0-|2-2-2-|0-0-0-|0-0-0-|2-2-2-|2-2-2-|

|--0-|5-2-|--0-|----0---|------|------|------|------|------|

|3---|----|3---|--------|------|------|------|------|------|

|----|----|----|--------|------|------|------|------|------|

|0-0-0-|0-0-0-------|----------|----------|--------------|

|------|------2---0-|0-0---2-0-|0-0---2-0-|0-0-0-0-0-0-0-|

|------|--------3---|----3-----|----3-----|--------------|

|------|------------|----------|----------|--------------|

|--------------|0-0-0-|--------|------|--------|0-0-0-|

|0-0-0-0-0-0-0-|0-----|0-0-0-1-|2-2-2-|------2-|------|

|--------------|------|--------|------|2-2-2---|------|

|--------------|------|--------|------|--------|------|

|--------|------|----------------|0-2-|--4-|0-2-|0-0---0-|

|0-0-0-1-|2-2-2-|----------------|--0-|5-2-|--0-|----0---|

|--------|------|2-2-2-2-2-2-2-2-|3---|----|3---|--------|

|--------|------|----------------|----|----|----|--------|

|2-2-2-|0-0-0-|0-0-0-|2-2-2-|2-2-2-|0-0-0-|0-0-0-------|

|------|------|------|------|------|------|------2---0-|

|------|------|------|------|------|------|--------3---|

|------|------|------|------|------|------|------------|

|----------|----------|--------------|--------------|0-0-0-|

|0-0---2-0-|0-0---2-0-|0-0-0-0-0-0-0-|0-0-0-0-0-0-0-|0-----|

|----3-----|----3-----|--------------|--------------|------|

|----------|----------|--------------|--------------|------|

|--------|------|--------|0-0-0-|--------|------|----------------|

|0-0-0-1-|2-2-2-|------2-|------|0-0-0-1-|2-2-2-|----------------|

|--------|------|2-2-2---|------|--------|------|2-2-2-2-2-2-2-2-|

|--------|------|--------|------|--------|------|----------------|

|0-2-|--4-|0-2-|----------------|0-0-0-|------------|||

|--0-|5-2-|--0-|----------------|------|--2-0---2-0-|||

|3---|----|3---|2-2-2-2-2-2-2-2-|3-3-3-|3-----3-----|||

|----|----|----|----------------|------|------------|||

Created with TablEdit http://www.tabledit.com/

Get this song at:  amazon.com sheetmusicplus.com

Share your thoughts

0 Comments found