Beatles

Beatles - I Saw Her Standing There Bass guitar tab

I Saw Her Standing There

The Beatles

Written by John Lennon and Paul McCartney; released on "Please Please Me"

This is a really hot, rocking song :-)

Intro:

G|------- ------- ------- -------|------- ------- ------- -------|

D|--------6-------9-------7---6--|--------6-------9-------7---6--|

A|7---7-------7-------7----------|7---7-------7-------7----------|

E|-------------------------------|-------------------------------|

G|------- ------- ------- -------|------- ------- ------- -------|

D|--------6-------9-------7---6--|--------6-------9-------7---6--|

A|7---7-------7-------7----------|7---7-------7-------7----------|

E|-------------------------------|-------------------------------|

Well, she was just

Verse:

G|------- ------- ------- -------|------- ------- ------- -------|

D|--------6-------9-------7---6--|--------6-------9-------7---6--|

A|7---7-------7-------7----------|7---7-------7-------7----------|

E|-------------------------------|-------------------------------|

seven - teen, and you

G|------- ------- ------- -------|------- ------- ------- -------|

D|-------------------------------|--------6-------9-------7---6--|

A|--------4-------7-------5---5--|7---7-------7-------7----------|

E|5---5-------5-------5----------|-------------------------------|

know what I mean, And the

G|------- ------- ------- -------|------- ------- ------- -------|

D|--------6-------9-------7---6--|--------6-------9-------7---6--|

A|7---7-------7-------7----------|7---7-------7-------7----------|

E|-------------------------------|-------------------------------|

way she looked was way be- yond compare

G|------- ------- ------- -------|------- ------- ------- -------|

D|-------------------------------|-------------------------------|

A|--------6-------9-------7---7--|--------6-------9-------7---7--|

E|7---7-------7-------7----------|7---7-------7-------7----------|

So,

G|------- ------- ------- -------|------- ------- ------- -------|

D|-------------------------------|6-------6-------6-------6------|

A|7-------7-------7-------7------|-------------------------------|

E|-------------------------------|-------------------------------|

how could I dance with an - o-

G|------- ------- ------- -------|5------ 5------ 5------ 5------|

D|7-------7-------7-------7------|-------------------------------|

A|-------------------------------|-------------------------------|

E|-------------------------------|-------------------------------|

ther, Wooh, when I

G|------- ------- ------- -------|------- ------- ------- -------|

D|--------6-------9---9---7---6--|-------------------------------|

A|7-----------7------------------|--------6-------9-------7---7--|

E|-------------------------------|7---7-------7-------7----------|

saw her stan - ding there

G|------- ------- ------- -------|------- ------- ------- -------|

D|--------6-------9-------7---6--|--------6-------9-------7---6--|

A|7---7-------7-------7----------|7---7-------7-------7----------|

E|-------------------------------|-------------------------------|

Well, she

Verse:

G|------- ------- ------- -------|------- ------- ------- -------|

D|--------6-------9-------7---6--|--------6-------9-------7---6--|

A|7---7-------7-------7----------|7---7-------7-------7----------|

E|-------------------------------|-------------------------------|

looked me, and

at

G|------- ------- ------- -------|------- ------- ------- -------|

D|-------------------------------|--------6-------9-------7---6--|

A|--------4-------7-------5---5--|7---7-------7-------7----------|

E|5---5-------5-------5----------|-------------------------------|

I, I could see That be-

G|------- ------- ------- -------|------- ------- ------- -------|

D|--------6-------9-------7---6--|--------6-------9-------7---6--|

A|7---7-------7-------7----------|7---7-------7-------7----------|

E|-------------------------------|-------------------------------|

fore too long I'd fall in love with her

G|------- ------- ------- -------|------- ------- ------- -------|

D|-------------------------------|-------------------------------|

A|--------6-------9-------7---7--|--------6-------9-------7------|

E|7---7-------7-------7----------|7---7-------7-------7----------|

G|------- ------- ------- -------|------- ------- ------- -------|

D|-------------------------------|6-------6-------6-------6------|

A|7-------7-------7-------7------|-------------------------------|

E|-------------------------------|-------------------------------|

She wouldn't dance with an - o-

G|------- ------- ------- -------|5------ 5------ 5------ 5------|

D|7-------7-------7-------7------|-------------------------------|

A|-------------------------------|-------------------------------|

E|-------------------------------|-------------------------------|

ther, Wooh, when I

G|------- ------- ------- -------|------- ------- ------- -------|

D|--------6-------9---9---7---6--|-------------------------------|

A|7-----------7------------------|--------6-------9-------7---7--|

E|-------------------------------|7---7-------7-------7----------|

saw her stan - ding there

G|------- ------- ------- -------|------- ------- ------- -------|

D|--------6-------9-------7---6--|-------------------------------|

A|7---7-------7-------7----------|7-------5-------4--------------|

E|-------------------------------|------------------------7------|

Well, my

Bridge:

G|------- ------- ------- -------|------- ------- ------- -------|

D|-------------------------------|-------------------------------|

A|--------4-------7-------5---4--|--------4-------7-------5---4--|

E|5---5-------5-------5----------|5---5-------5-------5----------|

heart went boom, when I

G|------- ------- ------- -------|------- ------- ------- -------|

D|-------------------------------|-------------------------------|

A|--------4-------7-------5---4--|--------4-------7-------5---4--|

E|5---5-------5-------5----------|5---5-------5-------5----------|

crossed that room, And I

G|------- ------- ------- -------|------- ------- ------- -------|

D|-------------------------------|-------------------------------|

A|--------4-------7-------5---4--|--------4-------7-------5---4--|

E|5---5-------5-------5----------|5---5-------5-------5----------|

held her hand in

G|------- ------- ------- -------|------- ------- ------- -------|

D|-------------------------------|-------------------------------|

A|--------6-------9-------7---6--|--------6-------9-------7---6--|

E|7---7-------7-------7----------|7---7-------7-------7----------|

mine!

G|------- ------- ------- -------|------- ------- ------- -------|

D|-------------------------------|-------------------------------|

A|--------4-------7-------5---4--|--------4-------7-------5---4--|

E|5---5-------5-------5----------|5---5-------5-------5----------|

Woah, we danced

Verse:

G|------- ------- ------- -------|------- ------- ------- -------|

D|--------6-------9-------7---6--|--------6-------9-------7---7--|

A|7---7-------7-------7----------|7---7-------7-------7----------|

E|-------------------------------|-------------------------------|

through night, and we

the

G|------- ------- ------- -------|------- ------- ------- -------|

D|-------------------------------|--------6-------9-------7---6--|

A|--------4-------7-------5---4--|7---7-------7-------7----------|

E|5---5-------5-------5----------|-------------------------------|

held each o - ther tight, And be-

G|------- ------- ------- -------|------- ------- ------- -------|

D|--------6-------9-------7---6--|--------6-------9-------7---6--|

A|7---7-------7-------7----------|7---7-------7-------7----------|

E|-------------------------------|-------------------------------|

fore too long I fell in love with her

G|------- ------- ------- -------|------- ------- ------- -------|

D|-------------------------------|-------------------------------|

A|--------6-------9-------7---6--|--------6-------9-------7---7--|

E|7---7-------7-------7----------|7---7-------7-------7----------|

Now,

G|------- ------- ------- -------|------- ------- ------- -------|

D|----------------6-------9------|----------------6-------9------|

A|7-------7----------------------|7-------7----------------------|

E|-------------------------------|-------------------------------|

I'll ne- ver dance with an - o-

G|------- ------- ------- -------|5------ 5------ 5------ 5------|

D|7-------7-------7-------7------|-------------------------------|

A|-------------------------------|-------------------------------|

E|-------------------------------|-------------------------------|

ther, Wooh, since I

G|------- ------- ------- -------|------- ------- ------- -------|

D|--------6-------9---9---7---6--|-------------------------------|

A|7-----------7------------------|--------6-------9-------7---6--|

E|-------------------------------|7---7-------7-------7----------|

saw her stan - ding there

G|------- ------- ------- -------|------- ------- ------- -------|

D|--------6-------9-------7---6--|9---9---9---9---9---9---9---9--|

A|7---7-------7-------7----------|-------------------------------|

E|-------------------------------|-------------------------------|

Verse (solo):

G|------- ------- ------- -------|------- ------- ------- -------|

D|--------6-------9-------7---6--|--------6-------9-------7---6--|

A|7---7-------7-------7----------|7---7-------7-------7----------|

E|-------------------------------|-------------------------------|

G|------- ------- ------- -------|------- ------- ------- -------|

D|--------6-------9-------7---6--|--------6-------9-------7---6--|

A|7---7-------7-------7----------|7---7-------7-------7----------|

E|-------------------------------|-------------------------------|

G|------- ------- ------- -------|------- ------- ------- -------|

D|--------6-------9-------7---6--|--------6-------9--------------|

A|7---7-------7-------7----------|7---7-------7-------7---7---6--|

E|-------------------------------|-------------------------------|

G|------- ------- ------- -------|------- ------- ------- -------|

D|-------------------------------|-------------------------------|

A|--------6-------9-------7---6--|-------------------------------|

E|7---7-------7-------7----------|7-----------7---7-------7------|

G|------- ------- ------- -------|------- ------- ------- -------|

D|-------------------------------|----------------6---6---6---9--|

A|7---7---7---7---7---7---7---7--|7---7---7---7------------------|

E|-------------------------------|-------------------------------|

G|------- ------- ------- -------|------- ------- ------- -------|

D|7---7---7---7---7---7---7---7--|7---7---7---7---7---7---7---9--|

A|-------------------------------|-------------------------------|

E|-------------------------------|-------------------------------|

G|------- ------- ------- -------|------- ------- ------- -------|

D|--------6-------9-------7---6--|----------------7---7---6---4--|

A|7---7-------7-------7----------|--------6---9------------------|

E|-------------------------------|7---7--------------------------|

G|------- ------- ------- -------|------- ------- ------- -------|

D|--------6-------9-------7---6--|-------------------------------|

A|7---7-------7-------7----------|7-------5-------4--------------|

E|-------------------------------|------------------------7------|

Well, my

Bridge:

G|------- ------- ------- -------|------- ------- ------- -------|

D|-------------------------------|-------------------------------|

A|--------4-------7-------5---4--|--------4-------7-------5---4--|

E|5---5-------5-------5----------|5---5-------5-------5----------|

heart went boom, when I

G|------- ------- ------- -------|------- ------- ------- -------|

D|-------------------------------|-------------------------------|

A|--------4-------7-------5---4--|--------4-------7-------5---4--|

E|5---5-------5-------5----------|5---5-------5-------5----------|

crossed that room, And I

G|------- ------- ------- -------|------- ------- ------- -------|

D|-------------------------------|-------------------------------|

A|--------4-------7-------5---4--|--------4-------7-------5---4--|

E|5---5-------5-------5----------|5---5-------5-------5----------|

held her hand in

G|------- ------- ------- -------|------- ------- ------- -------|

D|-------------------------------|-------------------------------|

A|--------6-------9-------7---6--|--------6-------9---9---7---6--|

E|7---7-------7-------7----------|7---7-------7------------------|

mine!

G|------- ------- ------- -------|------- ------- ------- -------|

D|-------------------------------|-------------------------------|

A|--------4-------7-------5---4--|--------4-------7-------5---4--|

E|5---5-------5-------5----------|5---5-------5-------5----------|

Woah, we danced

Verse:

G|------- ------- ------- -------|------- ------- ------- -------|

D|--------6-------9-------7---6--|--------6-------9-------7---7--|

A|7---7-------7-------7----------|7---7-------7-------7----------|

E|-------------------------------|-------------------------------|

through night, and we

the

G|------- ------- ------- -------|------- ------- ------- -------|

D|-------------------------------|--------6-------9-------7---6--|

A|--------4-------7-------5---4--|7---7-------7-------7----------|

E|5---5-------5-------5----------|-------------------------------|

held each o - ther tight, And be-

G|------- ------- ------- -------|------- ------- ------- -------|

D|--------6-------9-------7---6--|--------6-------9-------7---6--|

A|7---7-------7-------7----------|7---7-------7-------7----------|

E|-------------------------------|-------------------------------|

fore too long I fell in love with her

G|------- ------- ------- -------|------- ------- ------- -------|

D|-------------------------------|-------------------------------|

A|--------6-------9-------7---6--|--------6-------9-------7---6--|

E|7---7-------7-------7----------|7---7-------7-------7----------|

Now,

G|------- ------- ------- -------|------- ------- ------- -------|

D|-------------------------------|6-------6-------6-------6------|

A|7-------7-------7-------7------|-------------------------------|

E|-------------------------------|-------------------------------|

I'll ne- ver dance with an - o-

G|------- ------- ------- -------|5------ 5------ 5------ 5------|

D|7-------7-------7-------7------|-------------------------------|

A|-------------------------------|-------------------------------|

E|-------------------------------|-------------------------------|

ther, Wooh, since I

G|------- ------- ------- -------|------- ------- ------- -------|

D|--------6-------9---9---7---6--|-------------------------------|

A|7---7-------7------------------|--------6-------9-------7---7--|

E|-------------------------------|7---7-------7-------7----------|

saw her stan - ding there

G|------- ------- ------- -------|------- ------- ------- -------|

D|--------6-------9-------7---6--|--------6-------9-------7---6--|

A|7---7-------7-------7----------|7---7-------7-------7----------|

E|-------------------------------|-------------------------------|

Woah, since I

Outro:

G|------- ------- ------- -------|------- ------- ------- -------|

D|--------6-------9---9---7---6--|-------------------------------|

A|7---7-------7------------------|--------6-------9-------7---7--|

E|-------------------------------|7---7-------7-------7----------|

saw her stan - ding there

G|------- ------- ------- -------|------- ------- ------- -------|

D|--------6-------9-------7---6--|--------6-------9-------7---6--|

A|7---7-------7-------7----------|7-----------7-------7----------|

E|-------------------------------|-------------------------------|

Yeah, well, since I

G|------- ------- ------- -------|------- ------- ------- -------|

D|--------6-------9---9---7---6--|-------------------------------|

A|7---7-------7------------------|--------6-------9-------7---6--|

E|-------------------------------|7---7-------7-------7----------|

saw her stan - ding there

G|------- ------- ------- -------|------- ----9-- ------- -------|

D|7---7---7---7---7---7---7---7--|----6---9----------------------|

A|-------------------------------|7-----------------------7------|

E|-------------------------------|-------------------------------|

Please e-mail me for any corrections.Added by tabs-database.com and our distinguished partners

Get this song at:  amazon.com sheetmusicplus.com

Share your thoughts

0 Comments found