Beatles

Beatles - I m down bass tab

I'm Down

G:-----------------------------------------------

D:-----------------------------------------------

A:-------5-------3-3-3-3-3-3-3-3-----------------

E:-------------------------------3-3-3-3-3-3-3-3

G:-----------------------------------------------

D:-----------------------------------------------

A:-3-3-3-3-3-3-3-3---5-3----3-5----5---5---------

E:-----------------------------------------------

G:-----------------------------------------------

D:-----------------------------------------------

A:-3-3-3-3-3-3-3-3----------------3-3-3-3-3-3-3-3

E:-----------------3-3-3-3-3-3-3-3---------------

Guitar solo

G:-----------------------------------------------

D:-----------------------------------------------

A:-5----3-----3---5----------5--------5----------

E:-----------------------------------------------

G:-----------------------------------------------

D:-----------------------------------------------

A:-3-3-3-3-3-3-3---------------5-5-5-5-----------

E:--------------3-3-3-3-3-3-3-3-------3-3-3-3-3--

G:-----------------------------------------------

D:-----------------------------------------------

A:-------3-3-3-3-----5------5---3-3-3-3-3-3-3-3--

E:-3-3-3-----------------------------------------

G:-----------------------------------------------

D:-----------------------------------------------

A:-----------------3-3-3-3-3-3-3-3----5--3---5--3

E:-3-3-3-3-3-3-3-3-------------------------------

G:-----------------------------------------------

D:-----------------------------------------------

A:--3-3-3-3-3-3-3-3----------------5-5-5-5-------

E:------------------3-3-3-3-3-3-3-3--------3-3-3-

Repeat

G:-----------------------------------------------

D:-----------------------------------------------

A:-----------3-3-3-3-3-3-3-3---------------------

E:-3-3-3-3-3------------------3-3-3-3-3-3-3-3----

G:-----------------------------------------------

D:-----------------------------------------------

A:-5-5-5-5-----------------3-3-3-3-3-3-3-3-------

E:---------3-3-3-3-3-3-3-3-----------------------

Get this song at:  amazon.com sheetmusicplus.com

Share your thoughts

0 Comments found