Beatles

Beatles - I ll be back bass tab

I’ll Be Back – The Beatles

Submitted by; Val Strode

Email; vstrode@hotmail.com

I’LL BE BACK

G-----------------------------------------------------------------------------------------------------------------------------------------

D-----------------------------------------------------------------------------------------------------------------------------------------

A-------7-7-----7-7------7-----------------------------------------------------------------------------------7-7-7-7---7--7---------

E---5-5----5-5------5--5----5--------3-------3----3------------1--1-1-------0----0---0------0--5----5--------------------7—(7)

Am G F(Fmaj7) E A

1.4. (You) know, if you break my heart I'll go, but I’ll be back again. (end on 4)

2.3. You, could find better things to do, than to break my heart again.

|||||||||||||||||||||||||||||||||||||||||||||||||||||||||||||||||||||||||||||||||||||||||||||||||||||||||||||||||||||||||||||||||||||||||||||||||||||||||||||||||||||||||||||||||||||||||||||||||||||||||||||||||||||

G-----------------------------------------------------------------------------------------------------------------------

D-----------------------------------------------------------------------------------------------------------7-7--------

A-----------------------------------------------------------------------------------------------------7--7-----(7)----

E--------------5--5----5------3-------3----3---------1--1-1---------0----0---0--------0-5----5------------------

Am G F(Fmaj7) E A

1. Cause I, told you once before goodbye. But I came back again.

2.3. This time, I will try to show that I’m, not trying to pretend. (to bridge)

|||||||||||||||||||||||||||||||||||||||||||||||||||||||||||||||||||||||||||||||||||||||||||||||||||||||||||||||||||||||||||||||||||||||||||||||||||||||||||||||||||||||||||||||||||||||||||||||||||||||||||||||||||||

G-------------------------------------------------------------------------------------------------------------------------

D----7-----------4--4------2-4-4-----------4------------------4--4----------4-----------------------2---------------

A--7------------------4--4--------4----------------------2---2-------2---2--------------2----------------------------

E------------------------------------------------------------------------------------------------------------------------

F#m Bm E

1. I love you so, I'm the one who wants you, yes I'm the one who wants you

3. I wanna go, but I hate to leave you, you know I hate to leave you,

|||||||||||||||||||||||||||||||||||||||||||||||||||||||||||||||||||||||||||||||||||||||||||||||||||||||||||||||||||||||||||||||||||||||||||||||||||||||||||||||||||||||||||||||||||||||||||||||||||||||||||||||||||||

G-------------------------------------------------------------

D------0---2-2-0--2-2--------------------------------------

A--------------------------------------7---------------------

E------------------------0-------5--5---5------------------

D E D E

1. 3. Oh-ho Oh-ho (v1 to v2)

|||||||||||||||||||||||||||||||||||||||||||||||||||||||||||||||||||||||||||||||||||||||||||||||||||||||||||||||||||||||||||||||||||||||||||||||||||||||||||| BRIDGE:

G---------------------------------------------------------------------------------------

D----------------------------------------------------------------------------------------

A-----------------------------------4--4-4-4--4-4-------------------------------------

E--7--7-7-7---7--7-7--7------------------------------------4-2-----2—2---------2

Bm C#m F#m

I thought that you would realize, that if I ran away from you,

|||||||||||||||||||||||||||||||||||||||||||||||||||||||||||||||||||||||||||||||||||||||||||||||||||||||||||||||||||||||||||||||||||||||||||||||||||||||||||||||||||||||||||||||||||||||||||||||||||||||||||||||||||||

G------------------------------------------------------------------------------------------------------------------------

D------------------------------------------------------------------------------------------------------------------------

A-----2--------------2------------2-----------5-5------5----5---7-7---5----7-7-7--5-7-7-0------------------------

E------------------------------------------------------------------------------------------------------------------------

B7 D E D E D E

That you would want me too, but I got a big surprise Oh-oh Oh-oh (to v3)

Get this song at:  amazon.com

Share your thoughts

0 Comments found