Beatles

Beatles - I Feel Fine Bass guitar tab

I Feel Fine

The Beatles

Written by John Lennon and Paul McCartney; released on single "I Feel Fine / She's A Woman"

I love this song, especially that lead guitar riff :-)

Intro:

G|---------------------------------------------------------------|

D|---------------------------------------------------------------|

A|12-------------------------------------------------------------|

E|---------------------------------------------------------------|

G|---------------------------------------------------------------|

D|---------------------------------------------------------------|

A|---------------------------------------------------------------|

E|---------------------------------------------------------------|

G|-----------|

D|-----------|

A|-----------|

E|-----------|

G|------- ------- ------- -------|------- ------- ------- -------|

D|-------------------------------|-------------------------------|

A|-------------------------------|-------------------------------|

E|-------------------------------|-------------------------------|

G|------- ------- ------- -------|------- ------- ------- -------|

D|-------------------------------|-------------------------------|

A|-------------------------------|-------------------------------|

E|-------------------------------|-------------------------------|

G|------- ------- ------- -------|------- ------- ------- -------|

D|-------------------------------|-------------------------------|

A|-------------------------------|-------------------------------|

E|-------------------------------|--------------------3---10-\\-3-|

G|------- ------- ------- -------|------- ------- ------- -------|

D|5------------------------------|5------------------------------|

A|----------------5--------------|----------------5--------------|

E|-------------------------------|-------------------------------|

Verse:

G|------- ------- ------- -------|------- ------- ------- -------|

D|5------------------------------|5------------------------------|

A|----------------5--------------|----------------5--------------|

E|-------------------------------|-------------------------------|

Ba - by's good to me, you know, she's hap-

G|------- ------- ------- -------|------- ------- ------- -------|

D|5------------------------------|5------------------------------|

A|----------------5--------------|----------------5--------------|

E|-------------------------------|-------------------------------|

py as can be, you know, She said

G|------- ------- ------- -------|------- ------- ------- -------|

D|----------------7--------------|----------------7--------------|

A|5------------------------------|5------------------------------|

E|-------------------------------|-------------------------------|

so,

G|------- ------- ------- -------|------- ------- ------- -------|

D|----------------7--------------|----------------5--------------|

A|5------------------------------|3------------------------------|

E|-------------------------------|-------------------------------|

I'm in love with her, and I feel

G|------- ------- ------- -------|------- ------- ------- -------|

D|5------------------------------|5------------------------------|

A|----------------5--------------|----------------5--------------|

E|-------------------------------|-------------------------------|

fine

Verse:

G|------- ------- ------- -------|------- ------- ------- -------|

D|5------------------------------|5------------------------------|

A|----------------5--------------|----------------5--------------|

E|-------------------------------|-------------------------------|

Ba - by says she's you know, she tells

mine,

G|------- ------- ------- -------|------- ------- ------- -------|

D|5------------------------------|5------------------------------|

A|----------------5--------------|----------------5--------------|

E|-------------------------------|-------------------------------|

me all the time, you know, She said

G|------- ------- ------- -------|------- ------- ------- -------|

D|----------------7--------------|----------------7--------------|

A|5------------------------------|5------------------------------|

E|-------------------------------|-------------------------------|

so,

G|------- ------- ------- -------|------- ------- ------- -------|

D|----------------7--------------|----------------5--------------|

A|5------------------------------|3------------------------------|

E|-------------------------------|-------------------------------|

I'm in love with her, and I feel

G|------- ------- ------- -------|------- ------- ------- -------|

D|5------------------------------|5------------------------------|

A|----------------5--------------|----------------5--------------|

E|-------------------------------|-------------------------------|

fine

Bridge:

G|------- ------- ------- -------|4------ ----4-- ------- -------|

D|5------------------------------|----------------4--------------|

A|----------------5--------------|-------------------------------|

E|-------------------------------|-------------------------------|

I'm so glad that

G|5------ ------- ------- ----5--|7------ ----7-- ------- -------|

D|----------------5--------------|----------------7--------------|

A|-------------------------------|-------------------------------|

E|-------------------------------|-------------------------------|

she's my little girl,

Ooooooooooooooooooooooooooooooooooooooooooooooooooooooooooooooo

G|------- ------- ------- -------|4------ ----4-- ------- -------|

D|5-----------5------------------|----------------4--------------|

A|----------------5--------------|-------------------------------|

E|-------------------------------|-------------------------------|

She's so glad, she's

G|------- ----5-- 9------ ----5--|7------ ----7-- ------- 7------|

D|7------------------------------|----------------7--------------|

A|-------------------------------|-------------------------------|

E|-------------------------------|-------------------------------|

telling all the world That her ba-

Ooooooooooooooooooooooooooooooooooooooooooooooooooooooooooooooo

Verse:

G|------- ------- ------- -------|------- ------- ------- -------|

D|5------------------------------|5------------------------------|

A|----------------5--------------|----------------5--------------|

E|-------------------------------|-------------------------------|

by buys her things, you know, he

G|------- ------- ------- -------|------- ------- ------- -------|

D|5------------------------------|5------------------------------|

A|----------------5--------------|----------------5--------------|

E|-------------------------------|-------------------------------|

buys her dia - mond rings, you know, She said

G|------- ------- ------- -------|------- ------- ------- 5---7--|

D|----------------7--------------|----------------5---7----------|

A|5------------------------------|5------------------------------|

E|-------------------------------|-------------------------------|

so,

G|------- ------- ------- -------|------- ------- ------- -------|

D|----------------7--------------|----------------5--------------|

A|5------------------------------|3------------------------------|

E|-------------------------------|-------------------------------|

She's in love with me, and I feel

G|------- ------- ------- -------|------- ------- ------- -------|

D|5------------------------------|5-----------------------3---5--|

A|----------------5--------------|----------------3---5----------|

E|-------------------------------|-------------------------------|

fine ummm...

Break (solo):

G|------- ------- ------- -------|------- ------- ------- -------|

D|5------------------------------|5------------------------------|

A|----------------5--------------|----------------5--------------|

E|-------------------------------|-------------------------------|

G|------- ------- ------- -------|------- ------- ------- -------|

D|5------------------------------|5------------------------------|

A|----------------5--------------|----------------5--------------|

E|-------------------------------|-------------------------------|

G|------- ------- ------- -------|------- ------- ------- -------|

D|----------------7--------------|----------------7--------------|

A|5------------------------------|5------------------------------|

E|-------------------------------|-------------------------------|

G|------- ------- ------- -------|------- ------- ------- -------|

D|-------------------------------|-------------------------------|

A|5------------------------------|-------------------------------|

E|-------------------------------|-------------------------------|

G|------- ------- ------- -------|------- ------- ------- -------|

D|-------------------------------|-------------------------------|

A|-------------------------------|-------------------------------|

E|-------------------------------|-------------------------------|

G|------- ------- ------- -------|------- ------- ------- -------|

D|-------------------------------|-------------------------------|

A|-------------------------------|-------------------------------|

E|-------------------------------|-------------------------------|

G|------- ------- ------- -------|------- ------- ------- -------|

D|5------------------------------|5------------------------------|

A|----------------5--------------|----------------5--------------|

E|-------------------------------|-------------------------------|

Verse:

G|------- ------- ------- -------|------- ------- ------- -------|

D|5------------------------------|5------------------------------|

A|----------------5--------------|----------------5--------------|

E|-------------------------------|-------------------------------|

Ba - by says she's you know, she tells

mine,

G|------- ------- ------- -------|------- ------- ------- -------|

D|5------------------------------|5------------------------------|

A|----------------5--------------|----------------5--------------|

E|-------------------------------|-------------------------------|

me all the time, you know, She said

G|------- ------- ------- -------|------- ------- ------- -------|

D|----------------7--------------|----------------7--------------|

A|5------------------------------|5------------------------------|

E|-------------------------------|-------------------------------|

so,

G|------- ------- ------- -------|------- ------- ------- -------|

D|----------------7--------------|----------------5--------------|

A|5------------------------------|3------------------------------|

E|-------------------------------|-------------------------------|

I'm in love with her, and I feel

G|------- ------- ------- -------|------- ------- ------- -------|

D|5------------------------------|5------------------------------|

A|----------------5--------------|----------------5--------------|

E|-------------------------------|-------------------------------|

fine

Bridge:

G|------- ------- ------- -------|4------ ------- ------- -------|

D|5------------------------------|----------------4--------------|

A|----------------5--------------|-------------------------------|

E|-------------------------------|-------------------------------|

I'm so glad that

G|5------ ----5-- ------- -------|7------ ----7-- ------- -------|

D|----------------5--------------|----------------7--------------|

A|-------------------------------|-------------------------------|

E|-------------------------------|-------------------------------|

she's my little girl,

Ooooooooooooooooooooooooooooooooooooooooooooooooooooooooooooooo

G|------- ------- ------- -------|4------ ----4-- ------- -------|

D|5-----------5------------------|----------------4--------------|

A|----------------5--------------|-------------------------------|

E|-------------------------------|-------------------------------|

She's so glad, she's

G|------- ----5-- 9------ -------|7------ ----7-- ------- 7------|

D|7------------------------------|----------------7--------------|

A|-------------------------------|-------------------------------|

E|-------------------------------|-------------------------------|

telling all the world That her ba-

Ooooooooooooooooooooooooooooooooooooooooooooooooooooooooooooooo

Verse:

G|------- ------- ------- -------|------- ------- ------- -------|

D|5------------------------------|5------------------------------|

A|----------------5--------------|----------------5--------------|

E|-------------------------------|-------------------------------|

by buys her things, you know, he

G|------- ------- ------- -------|------- ------- ------- -------|

D|5------------------------------|5------------------------------|

A|----------------5--------------|----------------5--------------|

E|-------------------------------|-------------------------------|

buys her dia - mond rings, you know, She said

G|------- ------- ------- -------|------- ------- ------- 5---7--|

D|----------------7--------------|----------------5---7----------|

A|5------------------------------|5------------------------------|

E|-------------------------------|-------------------------------|

so,

G|------- ------- ------- -------|------- ------- ------- -------|

D|----------------7--------------|----------------5--------------|

A|5------------------------------|3------------------------------|

E|-------------------------------|-------------------------------|

She's in love with me, and I feel

G|------- ------- ------- -------|------- ------- ------- -------|

D|5------------------------------|5-----------------------5------|

A|----------------5--------------|----------------5--------------|

E|-------------------------------|-------------------------------|

fine

Outro:

G|------- ------- ------- -------|------- ------- ------- -------|

D|----------------7--------------|----------------5--------------|

A|5------------------------------|3------------------------------|

E|-------------------------------|-------------------------------|

She's in love with me, and I feel

G|------- ------- ------- -------|------- ------- ------- -------|

D|5------------------------------|-------------------------------|

A|-------------------------------|-------------------------------|

E|-------------------------------|-------------------------------|

Ummm...

Fade...

Please e-mail me for any corrections.Added by tabs-database.com and our distinguished partners

Get this song at:  amazon.com sheetmusicplus.com

Share your thoughts

0 Comments found