Beatles

Beatles - Hey Bulldog bass tab

Suprised to see ther wasn't a tab for this great song already.

the rythm is tricky so you should listen to the song for timing, this

bass line plays a lead role so it must be strong and acurate.

song is broken into small parts to help you understand better,

here it goes...

verse and solo

G------------------------------------------------

D------------------------------------------------

A--------7-8-9--------9-8-7----------------------

E-77-10-7-7----77-10-7-7-------------------------

G--------------------------------------------------

D---99999999776---------7h97h9---------------------

A--------------9-9-99999---------------------------

E-77-----------------------------------------------

G------------------------9-----------------------

D-99999999776------7-7\11------------------------

A------------9-99-9-9----------------------------

E------------------------------------------------

G------------------------------------------------

D-77-7---44-4------------6-----------------------

A---7------4---777-79-79--7----------------------

E------------------------------------------------

G----------------44------------------------------

D-77-7-44-4----44--------------------------------

A---7----4-3-22----2-----------------------------

E------------------------------------------------

chorus

G----------------------------------------------------------

D------------------------------------------------9999------

A------------------------------5\7-5\7-5\7-5\777-----7777--

E-5\77--5\77--5\77-5\7-5\7-5\7-----------------------------

and back to the top!

have fun with this great song

tabbed by Chris

leroythebassman@hotmail.com

Get this song at:  amazon.com

Share your thoughts

0 Comments found