Beatles

Beatles - Here Comes The Sun Intro guitar tab

This is my first tab i have ever submited, so i hope you like it.PLEASE RATE AND COMMENT.

Intro

strum pattern:2,6 pick pattern:1

----0-----------------------------------------------------------------------

----2----2-----0-2--------2-0--------------------0-------------------------0

----2-------2-------2-------------2----------2-------2--------1-----1--2---1

--------------------------------------4------0----------4--------4----------

----------------------------------------------------------------------------

----------------------------------------------------------------------------

--0-------------------------------------------------------------------------

--2----2-----0-2--------2--0---------------2-----0--------------------------

--2-------2--------2--------------2--------2-----------2----1---------------

-------------------------------------4-----0--------------------------------

----------------------------------------------------------------------------

----------------------------------------------------------------------------

Get this song at:  amazon.com

Share your thoughts

0 Comments found