Beatles

Beatles - Helter Skelter bass tab

Helter Skelter - The Beatles

bass enters at about 16 seconds

^=hammer on; pull off

verse

G|-----------------|-------------------------------------------------------------------------

D|-----------------|-------------------------------------------------------------------------

A|----------------/|7-7-7-7-7^5^7^5^7^5^7^57777777777777777----7-7-----777-5h7-5h7-5^7^5^7^5^

E|3-3-3-3-3-3-3-5--|---------------------------------------0-00----0-00----------------------

------------------------------------------------------------|

------------------------------------------------------------|

7^5^7----7-7-----777-5h7-5h7-5^7^5^7^5^7^53-----------------|

-----0-00----0-00--------------------------3-3-3-3-3-3-3-3-5|

chorus

G|------------------------------------------------------------------------------|

D|-------------------------5p4------------------------------------5p4-----------|

A|5h7-5h7-5h7-5h7-------------7p65p4----------5p4--------------------7p65p4-----|

E|----------------5-5-5-5-7---------5-0-0-0-0----5p43p20-5-5-5-5-7---------5-0--|

that's the idea

tabbed by Achilles (blue_sincere@hotmail.com)

Get this song at:  amazon.com

Share your thoughts

0 Comments found