Beatles

Beatles - Glass Onion bass tab

Glass Onion – The Beatles

Submitted by; Val Strode

Email; vstrode@Hotmail.com

GLASS ONION D---10s—7s----

G----------------------------|------------------------|-------------------------------------------------|---------------------------|-

D—7-7-7s-7s-r—7-------|--3-r-3-r-3-----5s7-|---7—7--7s—r--7----------------------------|----3-r-3-----3-3-5-----|-

A---------------------7------|--------------x--------|---------------------7--------------------------|------------5----------5---|-

E----------------------------|------------------------|-------------------------------------------------|----------------------------|--

Am F7 Am F7

1. I told you about Strawberry Fields, you know the place where nothing is real.

2. I told you about the walrus and me man, You know that we’re as close as can be man.

3. I told you about the fool on the hill. I tell you man he’s living there still.

||||||||||||||||||||||||||||||||||||||||||||||||||||||||||||||||||||||||||||||||||||||||||||||||||||||||||||||||||||||||||||||||||||||||||||||||||||||||||||||||||||||||||||||||||||||||||||||||||||||||||||||||||||||||||||||||

G-------------------------------|-------------------------------------|---------------------|-----------------------|-----------------------

D-7—7--7s—r—7----7-----|-------5------------3-----2---------|---------------------|-5---3—r—2----r--|-----------------------

A----------------------------5-|---------------5--------------5-r-5-|--3-r-1-r-0--------|---5------------5-----|--3-r-1-r-0----------

E-------------------------------|--------------------------------------|--------------3—3-|-----------------------|--------------3-2-(1)-

Am Gm7 C7(6) Gm7 C7

1. Well here’s another place you can go, where everything flows

2. Well here’s another clue for you all, the walrus is Paul

3. Well here’s another place you can be, listen to me

||||||||||||||||||||||||||||||||||||||||||||||||||||||||||||||||||||||||||||||||||||||||||||||||||||||||||||||||||||||||||||||||||||||||||||||||||||||||||||||||||||||||||||||||||||||||||||||||||||||||||||||||||||||||||||||||

G-------|-----------------------------------------------------|----------------------|---------------------------------------------|-----------------------|-

D-------|-3-1-----3------------r----3-------1-------3------|----------------1-3t-|-3—-1-—3-----r—---3-—1----3-------|-----------------1-3t-|-

A-------|--------------------------------------------------5t-|-5-r-5-r-5-r-------|------------------------------------------5t-|--5-r-5-5-5-5-------|-

E—(1)-|-----------------------------------------------------|----------------------|---------------------------------------------|-----------------------|-

F7 D7 F7 D7

1. Looking through the bent backed tulips, To see how the other half live

2. Standing on the cast iron shore yeah, Lady Madonna trying to make ends meet yeah

3. Fixing a hole in the ocean, Trying to make a dovetail joint yeah

||||||||||||||||||||||||||||||||||||||||||||||||||||||||||||||||||||||||||||||||||||||||||||||||||||||||||||||||||||||||||||||||||||||||||||||||||||||||||||||||||||||||||||||||||||||||||||||||||||||||||||||||||||||||||||||||

G----------------------------------------------------|---------------|--------------|-

D-------t3—1-3-------r----------------3-1-3-4--|-5-r-r-5---6-|--5-r-r------|-

A----------------------------------------------------|-----------5--|---------------|--

E-----------------------------------------------------|----v1-------|---------3-4--|-

F7 G end: F7 D7

1.2.3. Looking through a glass onion (v1 to v2)

||||||||||||||||||||||||||||||||||||||||||||||||||||||||||||||||||||||||||||||||||||||||||||||||||||||||||||||||||||||||||||||||||||||||||||||||||||||||||||||||||||||||||||||||||||||||||||||||||||||||||||||||||||||||||||||||

G----------------------------|---------------------|-------------------|---------------------|---------------------|--------------------|---------------------|-

D----------------------------|---------------------|-------------------|---------------------|---------------------|---------------------|--------------------|-

A----------------------------|---------------------|-------------------|---------------------|---------------------|---------------------|--------------------|-

E-----5-5-5-r-r-5-r-0-r--|-5-5-5-0-5-5-5-0-|--5-r-5-r-r-5-r--|-5-0-5-r-0-3-r-5-|-r-0-5-r-0-3-r-5-|-r-0-5-0-5-0-5-0-|-5-0-5-r-0-3-r-5-|-

Am F/A D7/A Am7

2. Oh yeah, oh yeah, oh yeah.

||||||||||||||||||||||||||||||||||||||||||||||||||||||||||||||||||||||||||||||||||||||||||||||||||||||||||||||||||||||||||||||||||||||||||||||||||||||||||||||||||||||||||||||||||||||||||||||||||||||||||||||||||||||||||||||||

G------------------------|---------------------------------------------------|---------|-----------------------|-

D------------------------|---------------------------------------------------|---------|-------------------5---|-

A------------------------|---------------------------------------------------|---------|-----------------------|-

E—5-0-5-0--5-0-5-0-|--1-----r------1-------------r-1--------r---1-r-|-3-r-r--|-----------------------|-

F7 G ending: G F7 D7

Looking through a glass onion. (v3)

/ - repeat phrase

s- slide

| - measure marker

r – rest

(x) – next note to play on next line

Get this song at:  amazon.com sheetmusicplus.com

Share your thoughts

0 Comments found