Beatles

Beatles - Free As A Bird bass tab

Song Title: Free As A Bird

Artist: Beatles

----------------------------------------------

Antonio Musco

Bass Tab: Free As A Bird - Beatles - Anthology Pt. 1

.Listen to the song for timing

Intro:

G:-------------------------------------------------------------------------

D:--------------------------4----0---2-------4---4---2---0---5-------------

A:-0-----------------0---4---------------0---------------------------3---2-

E:----2---1--0---0-----------------------------------------------3---------

G----------------------I

D----2--2----2---------I

A--0-------------------I

E----------------0-----I

1. Refrain:

G:-------------------------------------------------------------------------

D:-----2-----4---------------------2---4----2---0--2--2------4---2--0---0--

A:-0------------------------0---4------------------------0-----------------

E:--------2------1---0---0-------------------------------------------------

G:--------------------------------I

D:-5------------------2--2--------I

A:--------3--3--2--0--------------I

E:----3---------------------0--0--I

2.Strophe:

G:--------------------------------------------------------------------------

D:----2-----4---------------2--4--2--0--2--2--------------0---0--5--5-------

A:-0---------------------0--------------------0--0---------------------3--2-

E:-------2------1--0--0-----------------------------2--0--------------------

G:--------------------------I

D:--------2--2--2--2--------I

A:-0---0--------------------I

E:--------------------0--0--I

Bridge:

G:------------------------------------------------------------------------

D:------------------------------------------------------------------------

A:------------------------------------------------------------------------

E:-1--1--1--1--1--1--1--1---2--2--2--2--2--2--2--2--3--3--3--3--3--3--3--3

G:--------------------------------------------------------------------------

D:--------------------------------------------------------------------------

A:-0--0--0--0---------------------------------------------------------------

E:-------------3--3--3--3---1---1--1--1--1--1--1---2--2--2--2--2--2--2--2---

G:--------------------------------------------------I

D:--------------------------------------------------I

A:--------------------------2--0--2--2--2-----------I

E:-3--3--3--3--3--3--3--3-------------------0---0---I

2.Refrain:

G:---------------------------------------------------------------------------

D:-------------------------------4--2---0---0--2--2----------4--2--0---0--5--

A:-0---0-------------------0--4-----------------------0---4------------------

E:--------2---1---1--0--0----------------------------------------------------

G:----------------------------------I

D:----------------2--2--2--2--------I

A:-----3---2--0---------------------I

E:-3--------------------------0--0--I

2.Strophe:

G:-------------------------------------------------------------------------

D:----------------------------------2--4---2--0---2--2-------4---2--0---0--

A:-0---0----------------------0--4-----------------------0-----------------

E:--------2--2---1---1--0--0-----------------------------------------------

G:--------------------------------I

D:-5------------------------------I

A:-------3---2--0-----------------I

E:----3-------------0---0---3--3--I

.Go To Bridge =>

During the Solo:

G:--------------------------------------------------------------------------

D:--------------------------------------------------------------------------

A:--3-------------------------------3---------------------------------3-----

E:-----0--3--5---5---4---4--3---3-------0--3--5---3---1----1--3---3------0--

G:--------------------------------------------------------I

D:--------------------------------------------------------I

A:-------------------------3------------------------------I

E:-3--5---3--1---1--3--3------0--3--5---3--1-----1--3---3-I

3.Refrain/Outro

G:--------------------------------------------------------------------------

D:---------------------------------------2--4---2--0---0--2---2----------4--

A:-0--0---------------------------0---4---------------------------0---4-----

E:---------2---2---1---1--0---0---------------------------------------------

G:---------------------------------------------------------------------------

D:-2---0---0--5---5----------------------------------------------0---0--5--5-

A:--------------------0---0----------0---0--5------0---0---------------------

E:---------------------------2---2-------------3----------2--0---------------

G:-----------------------------------I

D:------------------0---0--5---------I

A:-0--0---------------------------0--I

E:-------4--2---0-------------3------I

Tabbed by Antonio Musco

Submitted by: Antonio Musco (a.musco@tau.it)

Get this song at:  amazon.com sheetmusicplus.com

Share your thoughts

0 Comments found