Beatles

Beatles - For No One bass tab

Title : For No One

Artist : The Beatles

Album : Revolver

Tabbed By : John Merna

Please bear with me... I’m 14, this is my first tab, I have been

playing bass for about 3 weeks and I tabbed this completely by ear

If anything needs to be changed you can e-mail me at susanmerna@aol.com

G------------------5-6----------------5-6---------|

D-----6--------4-6-----6----------4-6-------------|

A---4---4--6-7-----------4--4-6-7----------9--9-9-|

E-------------------------------------------------|

G----------------------------------------|

D--------------------------------------9-|

A---2--2-1--1------------------------9---|

E-------------4--4-2--2-0--0-5—-5-7------|

G--------------------------------------------|

D------9-8--8-6--6-4--4-2--2-7--7-8-9--9-----|

A-9-9------------------------------------9---|

E------------------------------------------7-|

G------------------5-6----------------5-6------|

D-----6--------4-6-----6----------4-6----------|

A---4---4--6-7-----------4--4-6-7----------9-9-|

E----------------------------------------------|

G-------------------|-----------------------------------------------------------|

D-----------------9-|---9--9-98--8-86--6-6-64--4-4-42--2-2-2--7-7-8-9--9--------|

A-2-1-----------9---|-9------------------------------------------------------9--|

E-----4-2-0-5-7-----|----------------------------------------------------------7|

G------------------------5-6-----------------5-6------|

D---------6----------4-6------6----------4-6------4-4-|

A---4-6-7---4--4-6-7------------4--4-6-7--------------|

E-----------------------------------------------------|

Get this song at:  amazon.com sheetmusicplus.com

Share your thoughts

0 Comments found