Beatles

Beatles - Every Little Thing bass tab

EVERY LITTLE THING (Bassline)

As recorded by The Beatles

(From the 1964 Album BEATLES FOR SALE)

Words and Music by John Lennon & Paul McCartney

Transcribed by Slowhand

Gtr I (E A D G) - 'Paul McCartney (Bass)'

Intro 1st & 2nd Verses

Q=114

4/4

Gtr I

W W Q. E Q. E

|----------|----------||----------------|

|----------|----------||o-7----7-7----7-|

|----------|----------||o---------------|

|----------|----------||----------------|

Q Q E E Q Q. E H Q Q E E Q Q. E H

|--------------|-------------|--------------|-4----4------|

|--------------|-7----7-7----|-5------------|--------7----|

|-5--7--7-7-7--|-------------|----5--5-5-4--|-------------|

|--------------|-------------|--------------|-------------|

Q. E H Q. E Q. E Q Q E E Q Q. E H

|-------------|---------------|--------------|-------------|

|-6----6-7----|-7----7-7----7-|--------------|-7----7-7----|

|-------------|---------------|-5--7--7-7-7--|-------------|

|-------------|---------------|--------------|-------------|

Chorus

$

Q Q E E Q Q. E H Q. E Q Q E E E E E E E E

|--------------|-4----4------|--------------||------------------|

|-5------------|--------7----|-6----6-7--7--||-7-7-7-7-7-7-7-7--|

|----5--5-5-4--|-------------|--------------||------------------|

|--------------|-------------|--------------||------------------|

E E E E E E E E E E E E E E E E E E E E E E E E E E E E E E E E

|-----------------|-----------------|-----------------|------------------|

|-5-5-5-5-5-5-5-5-|-5-5-5-5-5-5-5-5-|-7-7-7-7-7-7-7-7-|-7-7-7-7-7-7-7-7--|

|-----------------|-----------------|-----------------|------------------|

|-----------------|-----------------|-----------------|------------------|

Guitar Solo

To Coda

E E E E E E E E E E E E E E E E E E E E E E E E Q. E Q E E

|-----------------|-----------------|-------------------||---------------|

|-5-5-5-5-5-5-5-5-|-5-5-5-5-5-5-5-5-|-7-7-7-7-7-7-7-7--o||-7----7-7--7-7-|

|-----------------|-----------------|------------------o||---------------|

|-----------------|-----------------|-------------------||---------------|

Q Q E E Q Q. E Q E E Q Q E E +E E Q. E Q. E

|--------------|---------------|-----------------|-4----4---------|

|--------------|-7----7-7--7-7-|-5---------------|--------7----7--|

|-5--7--7-7-7--|---------------|----5--5-5-(5)-4-|----------------|

|--------------|---------------|-----------------|----------------|

Outro

D.S. al Coda &

Q. E Q Q E E E E E E E E Q Q E E E E

|--------------||-----------------|---------------|

|-6----6-7-----||-7-7-7-7-7-7-7-7-|---------------|

|-----------7--||-----------------|-5--7--7-7-7-7-|

|--------------||-----------------|---------------|

Q. E Q E E Q Q E E E E 5x

||----------------|------------------||

||o-7----7-7--7-7-|-----------------o||

||o---------------|-5--7--7-7-7-7---o||

||----------------|------------------||

Get this song at:  amazon.com sheetmusicplus.com

Share your thoughts

0 Comments found