Beatles

Beatles - Because bass tab

Because bass tab by the Beatles

Abbey Road 1969

Written by John Lennon

Played by Paul McCartney

Very simple bass on a beautiful song

Tabbed by Hugo geurdes (hugieboss@hotmail.com)

Corrections or suggestions are welcome

(played with a pick by Paul)

0:25

| | | | | | | |

|--------------------------------|7-------------------------------|

|--------------------------------|--------------------------------|

|5-------------------------------|--------------------------------|

|--------------------------------|--------------------------------|

| | | | | | | |

|--------------------------------|--------------------------------|

|------------------------6-------|------------------------6-------|

|4---------------------------7---|4---------------------------7---|

|--------------------------------|--------------------------------|

| | | | | | | |

|--------------------------------|--------------------------------|

|--------------------------------|6-------------------------------|

|6-----------------------7---9---|--------------------------------|

|--------------------------------|------------------------4-------|

| | | | | | | |

|--------------------------------|--------------------------------|

|--------------------------------|--------------------------------|

|------------------------7-------|4-----------------------7---4---|

|5-------------------------------|--------------------------------|

| | | | | | | |

|--------------------------------|--------------------------------|

|--------------------------------|7-------------------------------|

|--------------------------------|--------------------------------|

|5-------------------------------|--------------------------------|

| | | | | | | |

|--------------------------------|7-------------------------------|

|--------------------------------|--------------------------------|

|5-------------------------------|--------------------------------|

|--------------------------------|--------------------------------|

| | | | | | | |

|--------------------------------|--------------------------------|

|------------------------6-------|------------------------6-------|

|4---------------------------7---|4---------------------------7---|

|--------------------------------|--------------------------------|

| | | | | | | |

|--------------------------------|--------------------------------|

|--------------------------------|6-------------------------------|

|6-----------------------7---9---|--------------------------------|

|--------------------------------|------------------------4-------|

| | | | | | | |

|--------------------------------|--------------------------------|

|--------------------------------|--------------------------------|

|------------------------7-------|4-----------------------7---4---|

|5-------------------------------|--------------------------------|

| | | | | | | |

|--------------------------------|--------------------------------|

|--------------------------------|7-------------------------------|

|--------------------------------|--------------------------------|

|5-------------------------------|--------------------------------|

| | | | | | | |

|--------------------------------|7-------------------------------|

|--------------------------------|--------------------------------|

|5-------------------------------|--------------------------------|

|--------------------------------|--------------------------------|

| | | | | | | |

|--------------------------------|--------------------------------|

|4-------------------------------|4-------------------------------|

|------------------------4-------|------------------------6-------|

|--------------------------------|--------------------------------|

| | | | | | | |

|--------------------------------|--------------------------------|

|6-------------------------------|6-------------------------------|

|------------------------6-------|--------------------------------|

|--------------------------------|--------------------------------|

| | | | | | | |

|--------------------------------|--------------------------------|

|------------------------6-------|------------------------6-------|

|4---------------------------7---|4---------------------------7---|

|--------------------------------|--------------------------------|

| | | | | | | |

|--------------------------------|--------------------------------|

|--------------------------------|6-------------------------------|

|6-----------------------7---9---|--------------------------------|

|--------------------------------|------------------------4-------|

| | | | | | | |

|--------------------------------|--------------------------------|

|--------------------------------|--------------------------------|

|------------------------7-------|4-----------------------7---4---|

|5-------------------------------|--------------------------------|

| | | | | | | |

|--------------------------------|--------------------------------|

|--------------------------------|7-------------------------------|

|--------------------------------|--------------------------------|

|5-------------------------------|--------------------------------|

| | | | | | | |

|--------------------------------|7-------------------------------|

|--------------------------------|--------------------------------|

|5-------------------------------|--------------------------------|

|--------------------------------|--------------------------------|

| | | | | | | |

|--------------------------------|--------------------------------|

|------------------------6-------|------------------------6-------|

|4---------------------------7---|4---------------------------7---|

|--------------------------------|--------------------------------|

| | | | | | | |

|--------------------------------|--------------------------------|

|----------------------------4---|--------------------------------|

|6-----------------------7-------|--------------------------------|

|--------------------------------|4-----------------------4-------|

| | | | | | | |

|--------------------------------|--------------------------------|

|--------------------------------|--------------------------------|

|------------------------7-------|4-----------------------7---4---|

|5-------------------------------|--------------------------------|

| | | | | | | |

|--------------------------------|--------------------------------|

|--------------------------------|7-------------------------------|

|--------------------------------|--------------------------------|

|5-------------------------------|--------------------------------|

| | | | | | | |

|--------------------------------|7-------------------------------|

|--------------------------------|--------------------------------|

|5-------------------------------|--------------------------------|

|--------------------------------|--------------------------------|

Get this song at:  amazon.com sheetmusicplus.com

Share your thoughts

0 Comments found