Beatles

Beatles - And i love her corrected version bass tab

And I Love Her.btab

Beatles

Basstab by Jan Bjorklund, Finland;

jani_bjorklund@yahoo.se

You are welcome to request for basstabs or standard notation!

Bienvenidos a pedirme transcripciones para el bajo!

Tuning : E A D G Time Signature: 4/4

: 4/4

tempo 118 | | Intro | | |

|--------------------------------|--------------------------------|

|--------------------------------|4-----------4---4-------4-------|

|--------------------------------|--------------------------------|

|--------------------------------|--------------------------------|

| | | | | | | |

|--------------------------------|--------------------------------|

|4-----------4---4---------------|2-----------2---2-------2-------|

|--------------------------------|--------------------------------|

|--------------------------------|--------------------------------|

| | | | | I give her |

|--------------------------------|--------------------------------|

|2-----------2---2---------------|4-----------4---4---------------|

|--------------------------------|--------------------------------|

|--------------------------------|--------------------------------|

all my love... | | | | | |

|--------------------------------|--------------------------------|

|--------------------------------|4-----------4---4---------------|

|4-----------4---4---------------|--------------------------------|

|--------------------------------|--------------------------------|

| | | | | | | |

|--------------------------------|--------------------------------|

|--------------------------------|4---------------4---------------|

|4-----------4---4---------------|--------------------------------|

|--------------------------------|--------------------------------|

| | | | you'd love her too... |

|--------------------------------|------------6-------------------|

|--------------------------------|7-------------------------------|

|4-----------4---4-------4-------|------------------------7-------|

|--------------------------------|--------------------------------|

| | | I love her,,, | |

|--------------------------------|--------------------------------|

|--------------------------------|------------9-------------------|

|------------6-----------9-------|7---------------------------6---|

|7-------------------------------|------------------------7-------|

| | | | She gives me....| |

|--------------------------------|--------------------------------|

|------------9-------------------|4-----------4---4---------------|

|7-----------------------7-------|--------------------------------|

|--------------------------------|--------------------------------|

| | | | | | | |

|--------------------------------|--------------------------------|

|--------------------------------|4-----------4---4---------------|

|4-----------4---4---------------|--------------------------------|

|--------------------------------|--------------------------------|

| | | | | | | |

|--------------------------------|--------------------------------|

|--------------------------------|4-----------4---4---------------|

|4-----------4---4-------4-------|--------------------------------|

|--------------------------------|--------------------------------|

| | | | she brings to me... |

|--------------------------------|------------6-------------------|

|--------------------------------|7-------------------------------|

|4-----------4---4---------------|------------------------7-------|

|--------------------------------|--------------------------------|

| | And I | love her,,, | |

|--------------------------------|--------------------------------|

|--------------------------------|------------9-------------------|

|------------6-----------9-------|7---------------------------6---|

|7-------------------------------|------------------------7-------|

| | | | | | A love |

|--------------------------------|--------------------------------|

|------------9-------------------|--------------------------------|

|7-----------------------7---6---|4-----------4---4-------4-------|

|--------------------7-----------|--------------------------------|

| ours | | could never | |

|4-----------4---4-------4-------|--------------------------------|

|--------------------------------|--------------------------------|

|--------------------------------|4-----------4-----------4-------|

|--------------------------------|--------------------------------|

die | And I | as long as I | |

|--------------------------------|--------------------------------|

|6-----------6-----------6-------|--------------------------------|

|--------------------------------|4-----------4-----------4-------|

|--------------------------------|--------------------------------|

| | have you| near me | | |

|--------------------------------|--------------------------------|

|6-----------6-----------6-------|9-----------9-----------9-------|

|--------------------------------|--------------------------------|

|--------------------------------|--------------------------------|

| | | | Bright are the | |

|--------------------------------|--------------------------------|

|9-----------9-----------9---7---|4-----------4---4---------------|

|--------------------------------|--------------------------------|

|--------------------------------|--------------------------------|

stars that shine... | | | | |

|--------------------------------|--------------------------------|

|--------------------------------|4-----------4---4---------------|

|4-----------4---4---------------|--------------------------------|

|--------------------------------|--------------------------------|

| | | | I know this | |

|--------------------------------|--------------------------------|

|--------------------------------|4-----------4---4---------------|

|4-----------4---4---------------|--------------------------------|

|--------------------------------|--------------------------------|

love of mine | | will never | |

|--------------------------------|--------------------------------|

|--------------------------------|7-----------------------7-------|

|4-----------4---4---------------|------------4-------------------|

|--------------------------------|--------------------------------|

die | And I | love her| | |

|--------------------------------|--------------------------------|

|------------------------4-------|------------9-------------------|

|------------6-------------------|7-------------------------------|

|7-------------------------------|------------------------7-------|

| | | | S O L O | | |

|--------------------------------|--------------------------------|

|------------9-------------------|5-----------5---5---------------|

|7-----------------------7-------|--------------------------------|

|--------------------------------|--------------------------------|

| | | | | | | |

|--------------------------------|--------------------------------|

|7-----------7---7---------------|5-----------5---5---------------|

|--------------------------------|--------------------------------|

|--------------------------------|--------------------------------|

| | | | | | | |

|--------------------------------|--------------------------------|

|7-----------7---7---------------|5-----------5---5---------------|

|--------------------------------|--------------------------------|

|--------------------------------|--------------------------------|

| | | | | | | |

|--------------------------------|--------------------------------|

|7-----------7---7-------7-------|8-----------6-----------8-------|

|--------------------------------|----------------8---------------|

|--------------------------------|--------------------------------|

| | | | | | | |

|--------------------------------|--------------------------------|

|--------------------------------|------------10------10----------|

|------------10--10----------7---|8---------------------------7---|

|8-----------------------8-------|------------------------8-------|

| | | | | | | |

|--------------------------------|--------------------------------|

|------------10------10----------|5-----------5---5---------------|

|8-----------------------10--8---|--------------------------------|

|--------------------------------|--------------------------------|

| | | | | | | |

|--------------------------------|--------------------------------|

|7-----------7---7---------------|5-----------5---5---------------|

|--------------------------------|--------------------------------|

|--------------------------------|--------------------------------|

| | | | | | | |

|--------------------------------|--------------------------------|

|7-----------7---7---------------|5-----------5---5---------------|

|--------------------------------|--------------------------------|

|--------------------------------|--------------------------------|

| | | | | | | |

|--------------------------------|--------------------------------|

|7-----------7---7---------------|8-------------------------------|

|--------------------------------|------------5-----------8-------|

|--------------------------------|--------------------------------|

| | | | | | | |

|--------------------------------|--------------------------------|

|------------------------5-------|------------10------------------|

|------------7-------------------|8---------------------------7---|

|8-------------------------------|------------------------8-------|

| | | | | | | |

|--------------------------------|--------------------------------|

|------------10------------------|5-----------5---5---------------|

|8-----------------------8---8---|--------------------------------|

|--------------------------------|--------------------------------|

| | | | | | | |

|--------------------------------|--------------------------------|

|5-----------5---5---------------|--------------------------------|

|--------------------------------|8-----------8---8---------------|

|--------------------------------|--------------------------------|

| | | | | | | |

|--------------------------------|--------------------------------|

|--------------------------------|5-----------5---5---5---5-------|

|8-----------8---8---8-----------|--------------------------------|

|--------------------------------|--------------------------------|

| | | | | | | |

|--------------------------------|--------------------------------|

|5-----------5---5---5/--6-------|--------------------------------|

|--------------------------------|5-------------------------------|

|--------------------------------|--------------------------------|

Created with TablEdit http://www.tabledit.com/

Get this song at:  amazon.com sheetmusicplus.com

Share your thoughts

0 Comments found