Beatles

Beatles - All Ive Got To Do Bass guitar tab

All I've Got To Do

The Beatles

Written by John Lennon and Paul McCartney; released on "With The Beatles"

album

Nice song :-)

Intro:

G|-----------------------------------------------|

D|-----------------------------------------------|

A|--------------------------------------------6--|

E|-----------------------------------------------|

When e - ver I

Verse:

G|------- ------- ------- -------|------- ------- ------- -------|

D|-------------------------------|-------------------------------|

A|4-----------4------------------|4-----------4------------------|

E|-------------------------------|-------------------------------|

want you a-

G|------- ------- ------- -------|------- ------- ------- -------|

D|-------------------------------|-------------------------------|

A|7-----------7------------------|7-----------7------------------|

E|-------------------------------|-------------------------------|

round, yeah, All I've got to

G|------- ------- ------- -------|------- ------- ------- -------|

D|-------------------------------|-------------------------------|

A|4-----------4------------------|4-----------4------------------|

E|-------------------------------|-------------------------------|

do is

G|------- ------- ------- -------|------- ------- ------- -------|

D|4-------4----------------------|4-------4---------------4------|

A|----------------4-------4------|----------------4--------------|

E|-------------------------------|-------------------------------|

call you on the phone, and you come running home, Yeah,

G|------- ------- ------- -------|------- ------- ------- -------|

D|-------------------------------|-------------------------------|

A|-------------------------------|7------------------------------|

E|5-------5-------5-------8------|------------7-----------7------|

that's all I've got to do

G|------- ------- ------- -------|

D|-------------------------------|

A|7------------------------------|

E|-------------------------------|

And when I,

Verse:

G|------- ------- ------- -------|------- ------- ------- -------|

D|-------------------------------|-------------------------------|

A|4-----------4------------------|4-----------4------------------|

E|-------------------------------|-------------------------------|

I wanna

G|------- ------- ------- -------|------- ------- ------- -------|

D|-------------------------------|-------------------------------|

A|7-----------7------------------|7-----------7------------------|

E|-------------------------------|-------------------------------|

kiss you, yeah, All I've got to

G|------- ------- ------- -------|------- ------- ------- -------|

D|-------------------------------|-------------------------------|

A|4-----------4------------------|4-----------4-----------7---4--|

E|-------------------------------|-------------------------------|

do is

G|------- ------- ------- -------|------- ------- ------- -------|

D|4------------------------------|4-----------------------4------|

A|------------4---------------7--|------------4-------4-------7--|

E|-------------------------------|-------------------------------|

whisper in your ear the word you long to hear, And

G|------- ------- ------- -------|------- ------- ------- -------|

D|-------------------------------|-------------------------------|

A|------------------------7------|7------------------------------|

E|5-----------8---------------8--|------------7-----------7------|

I'll be kissing you

G|------- ------- ------- -------|

D|-------------------------------|

A|7-------7-------7-------7------|

E|-------------------------------|

And the same goes for

Bridge:

G|------- ------- ------- -------|------- ------- ------- -------|

D|-------------------------------|-------------------------------|

A|----------------4-------7------|----------------4-------7------|

E|5-------5----------------------|5-------5----------------------|

me, whene - ver you want me at all, I'll be

Aaaaaaaaaaaaaaaaaaaaaaaaaaaaaaaaaaaaaaaaaaaaaaaa

G|------- ------- ------- -------|------- ------- ------- -------|

D|----------------6--------------|------------6------------------|

A|4-------4----------------------|4-----------------------4------|

E|------------------------4------|----------------------------7--|

here, yes, I will, whenever you call, You've

Aaaaaaaaaaaaaaaaaaaaaaaaaaaaaaaaaaaaaaaaaaaaaaaa

G|------- ------- ------- -------|------- ------- ------- -------|

D|-------------------------------|-------------------------------|

A|------------7-----------4------|7-----------4-----------7------|

E|5------------------------------|-------------------------------|

just got to call on me, yeah, you've

Aaaaaaaaaaaaaaaaaaaaaaaaaaaaaaaaaaaaaaaa

G|------- ------- ------- -------|------- ------- ------- -------|

D|-------------------------------|-------------------------------|

A|------------4-----------7---4--|7---------------------------6--|

E|5------------------------------|------------7---7-------7------|

just got to call on me

G|------- ------- ------- -------|

D|-------------------------------|

A|7------------------------------|

E|-------------------------------|

And when I,

Verse:

G|------- ------- ------- -------|------- ------- ------- -------|

D|-------------------------------|-------------------------------|

A|4-----------4------------------|4-----------4------------------|

E|-------------------------------|-------------------------------|

I wanna

G|------- ------- ------- -------|------- ------- ------- -------|

D|-------------------------------|-------------------------------|

A|7-----------7------------------|7-----------7------------------|

E|-------------------------------|-------------------------------|

kiss you, yeah, All I've got to

G|------- ------- ------- -------|------- ------- ------- -------|

D|-------------------------------|-------------------------------|

A|4-----------4------------------|4-----------4------------------|

E|-------------------------------|-------------------------------|

do is

G|------- ------- ------- -------|------- ------- ------- -------|

D|4-------4-------------------2--|4-------4---------------4------|

A|----------------4-------4------|----------------4---4-------7--|

E|-------------------------------|-------------------------------|

call you on the phone, and you come running home, Yeah,

G|------- ------- ------- -------|------- ------- ------- -------|

D|-------------------------------|-------------------------------|

A|------------7-------7----------|7------------------------------|

E|5-----------------------8------|------------7-----------7------|

that's all I've got to do

G|------- ------- ------- -------|

D|-------------------------------|

A|7-------7-------7-------7------|

E|-------------------------------|

And the same goes for

Bridge:

G|------- ------- ------- -------|------- ------- ------- -------|

D|-------------------------------|-------------------------------|

A|------------4-----------7------|------------4-----------7------|

E|5------------------------------|5------------------------------|

me, whene - ver you want me at all, I'll be

Aaaaaaaaaaaaaaaaaaaaaaaaaaaaaaaaaaaaaaaaaaaaaaaa

G|------- ------- ------- -------|------- ------- ------- -------|

D|------------6-------6----------|------------6-------6----------|

A|4------------------------------|4-----------------------4------|

E|------------------------4------|-------------------------------|

here, yes, I will, whenever you call, You've

Aaaaaaaaaaaaaaaaaaaaaaaaaaaaaaaaaaaaaaaaaaaaaaaa

G|------- ------- ------- -------|------- ------- ------- -------|

D|-------------------------------|-------------------------------|

A|------------4-----------4---7--|7-----------4-----------7------|

E|5------------------------------|-------------------------------|

just got to call on me, yeah, you've

Aaaaaaaaaaaaaaaaaaaaaaaaaaaaaaaaaaaaaaaa

G|------- ------- ------- -------|------- ------- ------- -------|

D|-------------------------------|-------------------------------|

A|------------4-----------7------|7-----------------------7------|

E|5------------------------------|------------7------------------|

just got to call on me, oh! You've

G|------- ------- ------- -------|------- ------- ------- -------|

D|-------------------------------|-------------------------------|

A|------------4-----------7------|7------------------------------|

E|5------------------------------|------------7-----------7------|

just got to call on me

G|------- ------- ------- -------|

D|-------------------------------|

A|7------------------------------|

E|-------------------------------|

m - m - m-

Outro:

G|------- ------- ------- -------|------- ------- ------- -------|

D|-------------------------------|-------------------------------|

A|4-----------4------------------|4-----------4------------------|

E|-------------------------------|-------------------------------|

m - m - m mmmm m - m - m - m

G|------- ------- ------- -------|------- ------- ------- -------|

D|-------------------------------|-------------------------------|

A|7-----------7------------------|7-----------7------------------|

E|-------------------------------|-------------------------------|

m - m m - m - m - m...

fade...

Please e-mail me for any corrections, or write a comment.Added by tabs-database.com and our distinguished partners

Get this song at:  amazon.com

Share your thoughts

0 Comments found