Beatles

Beatles - All i ve got to do bass tab

All I’ve Got to Do – The Beatles

Submitted by; Val Strode

Email; vstrode@hotmail.com

ALL I’VE GOT TO DO intro: Eaug (add 11,9)

G-------------------------------------------------------------------------------------------------------------------------------------------------------------

D---------------------6-66--------------9-99-------/-------------6-66---2-----4---------4-------------------4----4------------------------------4------

A------------------2--4-44--2----------7-77-----7/-------------4-44--2--4------------------4----4-4---4-------------------------4----4---4----------

E-------------------------------------------------------------------------------------------------------------------------------------------------------------

C#m E C#m F#m

1. Whenever I, want you around yeh. All I gotta do is call you on the phone and you’ll come running home.

2. And when I, I wanna kiss you yeh. All I gotta do is whisper in your ear the words you long to hear,

3. And when I, I wanna kiss you yeh. All I gotta do is call you on the phone and you’ll come running home,

||||||||||||||||||||||||||||||||||||||||||||||||||||||||||||||||||||||||||||||||||||||||||||||||||||||||||||||||||||||||||||||||||||||||||||||||||||||||||||||||||||||||||||||||||||||||||||||||||||||||||||||||||||||||||||||||||||||||||||||

G---------------------------------------------------------------------------------------------------------------------------------------

D--------------------------------2----2-----------------2------------------------------------------------------------------------------

A----4---0-0-------3-3--0---3---3-----------2-2--2---------------------------------------------------------------------------------

E---------------------------------------------------------------------------------------------------------------------------------------

Am E

1. Yeh, That’s all I gotta do. (to verse 2)

2. And I’ll be kissing you.

3. Yeh, That’s all I gotta do

||||||||||||||||||||||||||||||||||||||||||||||||||||||||||||||||||||||||||||||||||||||||||||||||||||||||||||||||||||||||||||||||||||||||||||||||||||||||||||||||||||||||||||||||||||||||||||||||||||||||||||||||||||||||||||||||||||||||||||||

G--------------------------------------------------------------------------------------------------------------------------------------------

D-2------------------2---------------------------2/----------------------------------------------6---------6-------------------------------

A---------------------------2----0----4------4----/---------------------------------------4-------------------4-------4-------------------

E--------------------------------------------------------------------------------------------------------4---------4------------4------4----

A C#m

And the same goes for me, whenever you want me at all I’ll be here, yes I will, whenever you call.

||||||||||||||||||||||||||||||||||||||||||||||||||||||||||||||||||||||||||||||||||||||||||||||||||||||||||||||||||||||||||||||||||||||||||||||||||||||||||||||||||||||||||||||||||||||||||||||||||||||||||||||||||||||||||||||||||||||||||||||

G---------------------------------------------------------------------------------------------------------------------------------------

D-----------------------------------------------------------------------2----2-----------1--2-----------------------------------------

A-4----------4------4-----4---7-----4-4---7-----0-----4------4-------4------2-2--2-----------------------------------------------

E---4--5--------5----------------------------------------------------------------------------------------------------------------------

A E C#m A E

You just gotta call on me, yeh, You just gotta call on me.

||||||||||||||||||||||||||||||||||||||||||||||||||||||||||||||||||||||||||||||||||||||||||||||||||||||||||||||||||||||||||||||||||||||||||||||||||||||||||||||||||||||||||||||||||||||||||||||||||||||||||||||||||||||||||||||||||||||||||||||

G---------------------------------------------------------------------------------------------------------------------------------------

D-----2------------------------2---2------6--66---------9-99------------------------------------------------------------------------

A-2-2------0----4---4--------------------4--44--2------7-77------------------------------------------------------------------------

E-------------------------------------------------------------------7--------------------------------------------------------------------

A E C#m E

oh, you just gotta call on me. mmmm

||||||||||||||||||||||||||||||||||||||||||||||||||||||||||||||||||||||||||||||||||||||||||||||||||||||||||||||||||||||||||||||||||||||||||||||||||||||||||||||||||||||||||||||||||||||||||||||||||||||||||||||||||||||||||||||||||||||||||||||

Chord fingering

Eaug(add 11,9)

-5-

-7-

-5-

-6-

-7-

-x-

/ - repeat phrase

s- slide

| - measure marker

r – rest

(x) – next note to play on next line

Get this song at:  amazon.com

Share your thoughts

0 Comments found