Beatles

Youve Got To Hide Your Love Away Bass Tabs



More from Beatles

Beatles Tabs
Beatles Chords
Beatles Bass
Beatles Lyrics

You've Got To Hide Your Love Away

The Beatles

Written by John Lennon and Paul McCartney; released on "Help!" album



Great love song from the film "Help!", John wrote this under the influence

of Bob Dylan. I love that flute solo in the end.



3/4 time

Intro:

G|------- ------- -------|------- ------- -------|

D|5----------------------|5----------------------|

A|-----------------------|-----------------------|

E|-----------------------|-----------------------|





Verse:

G|------- ------- -------|------- ------- -------|------- ------- -------|

D|5----------------------|-----------------------|3----------------------|

A|-----------------------|5----------------------|-----------------------|

E|-----------------------|-----------------------|-----------------------|

Here I stand head in





G|------- ------- -------|------- ------- -------|------- ------- -------|

D|5----------------------|-----------------------|-----------------------|

A|-----------------------|3----------------------|3----------------------|

E|-----------------------|-----------------------|-----------------------|

hand, turn my face to the wall,





G|------- ------- -------|------- ------- -------|------- ------- -------|

D|3----------------------|-----------------------|5-------5--------------|

A|-----------------------|3----------------------|-----------------------|

E|-----------------------|-----------------------|-----------------------|

If she's





G|------- ------- -------|------- ------- -------|------- ------- -------|

D|-----------------------|3-------3--------------|5----------------------|

A|5----------------------|-----------------------|-----------------------|

E|-----------------------|-----------------------|-----------------------|

gone, I can't go on,





G|------- ------- -------|------- ------- -------|------- ------- -------|

D|-----------------------|-----------------------|3----------------------|

A|3----------------------|3----------------------|-----------------------|

E|-----------------------|-----------------------|-----------------------|

fee - ling two foot small





G|------- ------- -------|------- ------- -------|------- ------- -------|

D|-----------------------|-----------------------|-----------------------|

A|3----------------------|5----------------------|5----------------------|

E|-----------------------|-----------------------|-----------------------|





Verse:

G|------- ------- -------|------- ------- -------|------- ------- -------|

D|5----------------------|-----------------------|3----------------------|

A|-----------------------|5----------------------|-----------------------|

E|-----------------------|-----------------------|-----------------------|

Eve - ry - where people





G|------- ------- -------|------- ------- -------|------- ------- -------|

D|5----------------------|-----------------------|-----------------------|

A|-----------------------|3----------------------|3----------------------|

E|-----------------------|-----------------------|-----------------------|

stare, each and eve - ry day,





G|------- ------- -------|------- ------- -------|------- ------- -------|

D|3----------------------|-----------------------|5----------------------|

A|-----------------------|3----------------------|-----------------------|

E|-----------------------|-----------------------|-----------------------|

I can





G|------- ------- -------|------- ------- -------|------- ------- -------|

D|-----------------------|3----------------------|5----------------------|

A|5----------------------|-----------------------|-----------------------|

E|-----------------------|-----------------------|-----------------------|

see them laugh at me,





G|------- ------- -------|------- ------- -------|------- ------- -------|

D|-----------------------|-----------------------|3----------------------|

A|3----------------------|3----------------------|-----------------------|

E|-----------------------|-----------------------|-----------------------|

and I hear them say:





G|------- ------- -------|------- ------- -------|------- ------- -------|

D|-----------------------|-----------------------|-----------------------|

A|3----------------------|5----------------------|3----------------------|

E|-----------------------|-----------------------|-----------------------|







G|------- ------- -------|------- ------- -------|

D|-----------------------|-----------------------|

A|2----------------------|-----------------------|

E|-----------------------|5----------------------|





Refrain:

G|------- ------- -------|------- ------- -------|------- ------- -------|

D|-----------------------|-----------------------|-----------------------|

A|-----------------------|--------0-------2------|3----------------------|

E|3----------------------|3----------------------|-----------------------|

'Hey, you've got to hide your





G|------- ------- -------|------- ------- -------|------- ------- -------|

D|-----------------------|-----------------------|-----------------------|

A|-----------------------|5----------------------|-----------------------|

E|3----------------------|-----------------------|5----------------------|

love a - way!'





G|------- ------- -------|------- ------- -------|------- ------- -------|

D|-----------------------|-----------------------|-----------------------|

A|5----------------------|-----------------------|-----------------------|

E|-----------------------|5----------------------|3----------------------|

'Hey,





G|------- ------- -------|------- ------- -------|------- ------- -------|

D|-----------------------|-----------------------|-----------------------|

A|--------0-------2------|3----------------------|-----------------------|

E|3----------------------|-----------------------|3----------------------|

you've got to hide your love a-





G|------- ------- -------|------- ------- -------|------- ------- -------|

D|-----------------------|-----------------------|-----------------------|

A|5----------------------|-----------------------|5----------------------|

E|-----------------------|5----------------------|-----------------------|

way!'





G|------- ------- -------|

D|-----------------------|

A|-----------------------|

E|5----------------------|





Verse:

G|------- ------- -------|------- ------- -------|------- ------- -------|

D|5----------------------|-----------------------|3----------------------|

A|-----------------------|5----------------------|-----------------------|

E|-----------------------|-----------------------|-----------------------|

How can I e - ven





G|------- ------- -------|------- ------- -------|------- ------- -------|

D|5----------------------|-----------------------|-----------------------|

A|-----------------------|3----------------------|3----------------------|

E|-----------------------|-----------------------|-----------------------|

try? I can ne- ver





G|------- ------- -------|------- ------- -------|------- ------- -------|

D|3----------------------|-----------------------|5----------------------|

A|-----------------------|3----------------------|-----------------------|

E|-----------------------|-----------------------|-----------------------|

win Hea - ring





G|------- ------- -------|------- ------- -------|------- ------- -------|

D|-----------------------|3----------------------|5----------------------|

A|5----------------------|-----------------------|-----------------------|

E|-----------------------|-----------------------|-----------------------|

them, see - ing them





G|------- ------- -------|------- ------- -------|------- ------- -------|

D|-----------------------|-----------------------|3----------------------|

A|3----------------------|3----------------------|-----------------------|

E|-----------------------|-----------------------|-----------------------|

in the state I'm in





G|------- ------- -------|------- ------- -------|------- ------- -------|

D|-----------------------|-----------------------|-----------------------|

A|3----------------------|5----------------------|-----------------------|

E|-----------------------|-----------------------|5----------------------|





Verse:

G|------- ------- -------|------- ------- -------|------- ------- -------|

D|5----------------------|-----------------------|3----------------------|

A|-----------------------|5----------------------|-----------------------|

E|-----------------------|-----------------------|-----------------------|

How could she say to





G|------- ------- -------|------- ------- -------|------- ------- -------|

D|5----------------------|-----------------------|-----------------------|

A|-----------------------|3----------------------|3----------------------|

E|-----------------------|-----------------------|-----------------------|

me: 'Love will find a way!'?





G|------- ------- -------|------- ------- -------|------- ------- -------|

D|3----------------------|-----------------------|5----------------------|

A|-----------------------|3----------------------|-----------------------|

E|-----------------------|-----------------------|-----------------------|

Ga - ther





G|------- ------- -------|------- ------- -------|------- ------- -------|

D|-----------------------|3----------------------|5----------------------|

A|5----------------------|-----------------------|-----------------------|

E|-----------------------|-----------------------|-----------------------|

round, all you clowns,





G|------- ------- -------|------- ------- -------|------- ------- -------|

D|-----------------------|-----------------------|3----------------------|

A|3----------------------|3----------------------|-----------------------|

E|-----------------------|-----------------------|-----------------------|

let me hear you say:





G|------- ------- -------|------- ------- -------|------- ------- -------|

D|-----------------------|-----------------------|-----------------------|

A|3----------------------|5----------------------|3----------------------|

E|-----------------------|-----------------------|-----------------------|







G|------- ------- -------|------- ------- -------|

D|-----------------------|-----------------------|

A|2----------------------|-----------------------|

E|-----------------------|5----------------------|





Refrain:

G|------- ------- -------|------- ------- -------|------- ------- -------|

D|-----------------------|-----------------------|-----------------------|

A|-----------------------|--------0-------2------|3----------------------|

E|3----------------------|3----------------------|-----------------------|

'Hey, you've got to hide your





G|------- ------- -------|------- ------- -------|------- ------- -------|

D|-----------------------|-----------------------|-----------------------|

A|-----------------------|5----------------------|-----------------------|

E|3----------------------|-----------------------|5----------------------|

love a - way!'





G|------- ------- -------|------- ------- -------|------- ------- -------|

D|-----------------------|-----------------------|-----------------------|

A|5----------------------|-----------------------|-----------------------|

E|-----------------------|5----------------------|3----------------------|

'Hey,





G|------- ------- -------|------- ------- -------|------- ------- -------|

D|-----------------------|-----------------------|-----------------------|

A|--------0-------2------|3----------------------|-----------------------|

E|3----------------------|-----------------------|3----------------------|

you've got to hide your love a-





G|------- ------- -------|------- ------- -------|------- ------- -------|

D|-----------------------|-----------------------|-----------------------|

A|5----------------------|-----------------------|5----------------------|

E|-----------------------|5----------------------|-----------------------|

way!'





G|------- ------- -------|

D|-----------------------|

A|-----------------------|

E|5----------------------|





Verse (solo):

G|------- ------- -------|------- ------- -------|------- ------- -------|

D|-----------------------|-----------------------|-----------------------|

A|-----------------------|5----------------------|-----------------------|

E|3----------------------|-----------------------|1----------------------|







G|------- ------- -------|------- ------- -------|------- ------- -------|

D|-----------------------|-----------------------|-----------------------|

A|-----------------------|3----------------------|3----------------------|

E|3----------------------|-----------------------|-----------------------|







G|------- ------- -------|------- ------- -------|------- ------- -------|

D|-----------------------|-----------------------|-----------------------|

A|-----------------------|3----------------------|-----------------------|

E|1----------------------|-----------------------|3----------------------|







G|------- ------- -------|------- ------- -------|------- ------- -------|

D|-----------------------|-----------------------|-----------------------|

A|5----------------------|-----------------------|-----------------------|

E|-----------------------|1----------------------|3----------------------|







G|------- ------- -------|------- ------- -------|------- ------- -------|

D|-----------------------|-----------------------|-----------------------|

A|3----------------------|3----------------------|-----------------------|

E|-----------------------|-----------------------|1----------------------|







G|------- ------- -------|------- ------- -------|------- ------- -------|

D|-----------------------|-----------------------|-----------------------|

A|3----------------------|-----------------------|-----------------------|

E|-----------------------|3----------------------|-----------------------|



Please e-mail me for any corrections, or write a comment.Added by tabs-database.com and our distinguished partners
Get this song at amazon.com      Ebay     Ringtones Ringtones  


Learn to play: Songwriting, Piano, Harmonica, Guitar

Related Beatles Tabs

I Call Your Name tabs
__daytripper tabs
Real Love tabs
Allmyloving tabs
Free As A Bird tabs
Dearprudence tabs
Youre Gonna Lose That Girl tabs
Allyouneedislove tabs
Please Please Me tabs
I Am The Walrus tabs
I Wanna Be Your Man tabs
You Cant Do That Intro tabs
Ask Me Why tabs
Got To Get You Into My Life tabs
All Day & All Of The Night tabs
Hellogoodbye tabs
Ishouldhaveknownbetter tabs
Hey Jude tabs
Blackbird Btab tabs
Youre Going To Lose That Girl Bass tabs


Guitar Tabs









All tabs are property and copyright of their owners. All tabs provided for educational purposes only. Privacy Policy, DMCA

Online converter - videoconverter.com