Beatles

Youre Going To Lose That Girl Bass Tabs



More from Beatles

Beatles Tabs
Beatles Chords
Beatles Bass
Beatles Lyrics

You're Going To Lose That Girl

The Beatles

Written by John Lennon and Paul McCartney; released on "Help!" album



Great song, I like its melody, especially in the bridges, and I love the

lyrics :-)



Intro:

G|------- ------- ------- -------|------- ------- ------- -------|

D|-------------------------------|-------------------------------|

A|-------------------------------|-------------------------------|

E|-------------------------------|-------------------------------|

You're to

going



G|------- ------- ------- -------|------- ------- ------- -------|

D|-------------------------------|-------------------------------|

A|7-----------7------------------|-------------------------------|

E|-------------------------------|9-----------9------------------|

lose that girl, you're to

going

yes, yes, he's gonna lose that girl

G|------- ------- ------- -------|------- ------- ------- -------|

D|-------------------------------|-------------------------------|

A|9-----------9------------------|-------------------------------|

E|-------------------------------|7-----------7------------------|

lose that girl!

yes, yes, he's gonna lose that girl

Verse:

G|------- ------- ------- -------|------- ------- ------- -------|

D|-------------------------------|6-----------6---6--------------|

A|7-----------7---7--------------|-------------------------------|

E|-------------------------------|-------------------------------|

If you don't her out to- night, she's to

take going



G|------- ------- ------- -------|------- ------- ------- -------|

D|-------------------------------|-------------------------------|

A|9-----------9---9--------------|----------------------------6--|

E|-------------------------------|7-----------7---7---7---9------|

change her mind

she's gon - na change her mind



G|------- ------- ------- -------|------- ------- ------- -------|

D|-------------------------------|6-----------6---6--------------|

A|7-----------7---7--------------|-------------------------------|

E|-------------------------------|-------------------------------|

And I will take out to- night, and I will

her



G|------- ------- ------- -------|------- ------- ------- -------|

D|-------------------------------|-------------------------------|

A|9-----------9---9--------------|----------------------------6--|

E|-------------------------------|7-----------7---7---7---9------|

treat her kind You're to

going

I'm gon - na treat her kind

G|------- ------- ------- -------|------- ------- ------- -------|

D|-------------------------------|----------------6--------------|

A|7-----------7-----------7------|4-------4---------------4------|

E|----------------7--------------|-------------------------------|

lose that girl, you're to

going

yes, yes, he's gonna lose that girl

G|------- ------- ------- -------|------- ------- ------- -------|

D|4-------4---------------4------|-------------------------------|

A|----------------4--------------|2-------2-----------2---4---6--|

E|-------------------------------|----------------2--------------|

lose that girl!

yes, yes, he's gonna lose that girl

Verse:

G|------- ------- ------- -------|------- ------- ------- -------|

D|-------------------------------|-------------------------------|

A|7-----------7-----------7------|-------------------------------|

E|----------------7-----------7--|4-------4-------4-------4---3--|

If you don't her right, my friend, you're to

treat going



G|------- ------- ------- -------|------- ------- ------- -------|

D|-------------------------------|-------------------------------|

A|----------------4--------------|2-----------2-------2---4---6--|

E|2-------2---------------2------|----------------2--------------|

find her gone

you're gon - na find her gone



G|------- ------- ------- -------|------- ------- ------- -------|

D|-------------------------------|-------------------------------|

A|7-----------7------------------|----------------6--------------|

E|----------------7--------------|4-----------4-----------4------|

Cause I will treat right, and then, you'll the

her be



G|------- ------- ------- -------|------- ------- ------- -------|

D|-------------------------------|-------------------------------|

A|----------------4--------------|2-----------2-------2---4---6--|

E|2-------2---------------2------|----------------2--------------|

lonely one You're to

going

you're not the on- ly one

G|------- ------- ------- -------|------- ------- ------- -------|

D|-------------------------------|-------------------------------|

A|7-----------7-----------7------|4-------4---------------4------|

E|----------------7--------------|----------------4---4-------4--|

lose that girl, you're to

going

yes, yes, he's gonna lose that girl

G|------- ------- ------- -------|------- ------- ------- -------|

D|-------------------------------|-------------------------------|

A|----------------4--------------|2-----------2-----------2------|

E|2-------2---------------2------|----------------2--------------|

lose that girl, you're to

going

yes, yes, he's gonna lose that girl

G|------- ------- ------- -------|------- ------- ------- -------|

D|4-----------4-----------4------|-------------------------------|

A|----------------4--------------|5-----------5-----------5------|

E|-------------------------------|----------------5--------------|

lose!

yes, yes, he's gonna lose that girl

Bridge:

G|------- ------- ------- -------|------- ------- ------- -------|

D|5-------5---------------5------|-------------------------------|

A|----------------5--------------|3-------3---------------3------|

E|-------------------------------|----------------3--------------|

I'll make a point of taking her a - way from you,





G|------- ------- ------- -------|------- ------- ------- -------|

D|5-------5----------------------|5-------5-------------------4--|

A|----------------5-------5------|----------------5-------5------|

E|-------------------------------|-------------------------------|

yeah!

watch what you do!



G|------- ------- ------- -------|------- ------- ------- -------|

D|5-------5---------------5------|-------------------------------|

A|----------------5--------------|3-------3---------------3------|

E|-------------------------------|----------------3--------------|

The way you treat her, what else can I do?





G|------- ------- ------- -------|

D|3-------3---------------3------|

A|----------------3-----------3--|

E|-------------------------------|





Verse (half-solo):

G|------- ------- ------- -------|------- ------- ------- -------|

D|2-----------2-----------2------|-------------------------------|

A|----------------2---2-------2--|----------------6--------------|

E|-------------------------------|4-------4---------------4---\--|







G|------- ------- ------- -------|------- ------- ------- -------|

D|-------------------------------|-------------------------------|

A|----------------4-----------4--|2-------2-------2---0----------|

E|2-------2---------------2------|------------------------4---2--|



you're going to lose that girl



G|------- ------- ------- -------|------- ------- ------- -------|

D|-------------------------------|-------------------------------|

A|-------------------------------|----------------6--------------|

E|0-----------0---0-------0------|4-------4---------------4------|







G|------- ------- ------- -------|------- ------- ------- -------|

D|-------------------------------|-------------------------------|

A|----------------4--------------|2-----------2-------2---4---6--|

E|2-----------2-----------2------|----------------2--------------|

You're to

going

you're going to lose that girl

G|------- ------- ------- -------|------- ------- ------- -------|

D|-------------------------------|-------------------------------|

A|7-----------7-----------7------|4-----------4-----------4------|

E|----------------7--------------|----------------4-----------4--|

lose that girl, you're to

going

yes, yes, he's gonna lose that girl

G|------- ------- ------- -------|------- ------- ------- -------|

D|-------------------------------|-------------------------------|

A|----------------4--------------|2-----------2-----------2------|

E|2-----------2-----------2------|----------------2--------------|

lose that girl, you're to

going

yes, yes, he's gonna lose that girl

G|------- ------- ------- -------|------- ------- ------- -------|

D|4-------4---------------4------|-------------------------------|

A|----------------4--------------|5-------5-------5-------5------|

E|-------------------------------|-------------------------------|

lose!

yes, yes, he's gonna lose that girl

Bridge:

G|------- ------- ------- -------|------- ------- ------- -------|

D|5-------5---------------5------|-------------------------------|

A|----------------5--------------|3-------3---------------3------|

E|-------------------------------|----------------3--------------|

I'll make a point of taking her a - way from you,





G|------- ------- ------- -------|------- ------- ------- -------|

D|5-------5----------------------|5-------5-------------------4--|

A|----------------5-------5------|----------------5-------5------|

E|-------------------------------|-------------------------------|

yeah!

watch what you do!



G|------- ------- ------- -------|------- ------- ------- -------|

D|5-------5----------------------|-------------------------------|

A|----------------5-------5------|3-------3---------------3------|

E|-------------------------------|----------------3--------------|

The way you treat her, what else can I do?





G|------- ------- ------- -------|

D|3-----------3-----------3------|

A|----------------3-----------3--|

E|-------------------------------|





Verse:

G|------- ------- ------- -------|------- ------- ------- -------|

D|2-----------2-----------2------|-------------------------------|

A|----------------2--------------|----------------6--------------|

E|-------------------------------|4-------4---------------4---3--|

If you don't her out to- night, she's to

take going



G|------- ------- ------- -------|------- ------- ------- -------|

D|-------------------------------|-------------------------------|

A|----------------4--------------|2-----------2-------2---4---6--|

E|2-----------2-----------2------|----------------2--------------|

change her mind

she's gon - na change her mind



G|------- ------- ------- -------|------- ------- ------- -------|

D|-------------------------------|-------------------------------|

A|7-----------7-----------7------|----------------6--------------|

E|----------------7-----------7--|4-----------4-----------4---3--|

And I will take out to- night, and I will

her



G|------- ------- ------- -------|------- ------- ------- -------|

D|-------------------------------|-------------------------------|

A|----------------4--------------|2-----------2-------2---4---6--|

E|2-----------2-----------2------|----------------2--------------|

treat her kind You're to

going

I'm gon - na treat her kind

G|------- ------- ------- -------|------- ------- ------- -------|

D|-------------------------------|-------------------------------|

A|7-------7---------------7------|4-------4---------------4------|

E|----------------7--------------|----------------4-----------4--|

lose that girl, you're to

going

yes, yes, he's gonna lose that girl

G|------- ------- ------- -------|------- ------- ------- -------|

D|-------------------------------|-------------------------------|

A|----------------4--------------|2-------2---------------2---0--|

E|2-------2---------------2------|----------------2--------------|

lose that girl!

yes, yes, he's gonna lose that girl

Outro:

G|------- ------- ------- -------|------- ------- ------- -------|

D|4-------4---------------4------|----------------7-------7------|

A|----------------4--------------|5-------5----------------------|

E|-------------------------------|-------------------------------|

lose that

yes, yes, he's gonna lose



G|------- ------- ------- -------|------- ------- ------- -------|

D|-------------------------------|-------------------------------|

A|7------------------------------|-------------------------------|

E|-------------------------------|-------------------------------|

girl!



Please e-mail me for any corrections, or write a comment.Added by tabs-database.com and our distinguished partners
Get this song at amazon.com      Ebay     Ringtones Ringtones  


Learn to play: Songwriting, Piano, Harmonica, Guitar

Related Beatles Tabs

You Wont See Me tabs
Kansas City Hey Hey Hey tabs
You Know My Name tabs
Keepyourhandsoffmybaby tabs
All Day And All Of The Night tabs
I Need You Bass tabs
The Ballad Of John And Yoko Bass tabs
Tell Me Why tabs
Golden Slumbers tabs
Ill Get You Bass tabs
The Happy Rishikesh Song tabs
Dizzy Miss Lizzie tabs
Yes It Is tabs
I Call Your Name tabs
One After Nine Oh Nine tabs
Octopus Garden tabs
I Dig A Pony tabs
Baby Youre A Rich Man tabs
Being For The Benefit Of Mr tabs
Michelle tabs


Guitar Tabs









All tabs are property and copyright of their owners. All tabs provided for educational purposes only. Privacy Policy, DMCA