Beatles

You Like Me Too Much Tabs



More from Beatles

Beatles Tabs
Beatles Chords
Beatles Bass
Beatles Lyrics

   -------------------------------------------------------



THE BEATLES - YOU LIKE ME TOO MUCH (Harrison) From HELP

album. Released on August, 6th, 1965.



-------------------------------------------------------



Tabbed by:PJVillanueva











The intro is played by George Martin on piano and John

on The Hohner electric piano with vibrato (Martin also

plays in the solo, answering George's two track guitar

solo). John also plays his J-160 for rhythm and George

plays tambourine in the bridges, solo and final G chord.

The title is rather naive and I suppose the song is too

but the bridge's first line and the last two transition

measures - "If you leave me" - have some good chromatic

motion. Ringo's playing is austere, though he manages

some good fills. John sounds disinterested at first ?

in his rhythm guitar playing but he ends warm and good.

I must say the lyrics are weak and the verses lines are

long and hardly leave room to breathe. The song, though,

is not bad, being only George's third attempt.











Though you've gone away this morning

You'll be back again tonight

Telling me there'll be no next time

If I just don't treat you right



You'll never leave me and you know it's true

'cause you like me too much and I like you.



You've tried before to leave me,

But you haven't got the nerve

To walk out and make me lonely,

Which is all that I deserve



You'll never leave me and you know it's true

'cause you like me too much and I like you.



I really do

And it's nice when you believe me

If you leave me



I will follow you

And bring you back where you belong

'cause I could't really stand it

I admit that I was wrong

I wouldn't let you leave me 'cause it's true

'cause you like me too much and I like you.



SOLO



'cause you like me too much and I like you.

I really do, and it's nice when you believe me

If you leave me



I will follow you

and bring you back where you belong

'cause I could't really stand it

I admit that I was wrong



I wouldn't let you leave me 'cause it's true

'cause you like me too much and I like you,

'cause you like me too much and I like you.











INTRO



e|------- ------- ------- -------|------- ------- ------- -------|

B|-------------------------------|---------------------0--1----2-|

G|-------------------------------|---------------------0--2----3-|

D|-------------------------------|-------------------------------|

A|-------------------------------|-------------------------------|

E|-------------------------------|-------------------------------|









e|------- ------- ------- -------|------- ------- ------- -------|

B|-3-3-3-3-3-3-5-5-3-3-3-3-5-5-5-|-6-6-6-6-6-6-6---6-6-6-6-5-5-5-|

G/4-4-4-4-4-4-5-5-4-4-4-4-5-5-5-5|7-7-7-7-7-7-7---7-7-7-7-5-5-5-5|

D|-------------------------------|-------------------------------|

A|-------------------------------|-------------------------------|

E|-------------------------------|-------------------------------|

G7 Gm D7

e|------- ------- ------- -------|------- ------- ------- -------|

B|6------------------------------|3---------------1--------------|

G|4------------------------------|3---------------2--------------|

D|5------------------------------|5---------------4--------------|

A|-------------------------------|-------------------------------|

E|3------------------------------|6------------------------------|





(.

G

e|--7---- ------- -------|

B|--8--------------------|

G|--7--------------------|

D/9----------------------|

A|-----------------------|

E|-----------------------|



e|------- ------- -------|

B|3----------------------|

G|3H4--------------------|

D|5----------------------|

A|-----------------------|

E|3----------------------|

Though

you've



VERSE

00:09

Am

e|0------ 0---0-- 0---0-- 0---0--|0------ 0------ ------- -------|

B|1-------1---1---1---1---1---1--|1-------1----------------------|

G|2-------2---2---2---2---2---2--|2-------2----------------------|

D|2-------2---2---2---2---2---2--|2-------2----------------------|

A|0-------0---0---0---0---0---0--|0-------0----------------------|

E|-------------------------------|-------------------------------|



e|------- ------- ------- -------|------- ------- ------- -------|

B|5-----------5------------------|5-----------5------------------|

G|5-----------5------------------|5-----------5------------------|

D|7-----------7------------------|7-----------7------------------|

A|-------------------------------|-------------------------------|

E|-------------------------------|-------------------------------|

gone away this morning You'll be back





C G

e|------- 0---0-- 0---0-- 0------|3------ 3---3-- 3---3-- 3------|

B|--------1---1---1---1---1------|3-------3---3---3---3---3------|

G|--------0---0---0---0---0------|0-------0---0---0---0---0------|

D|--------2---2---2---2---2------|0-------0---0---0---0---0------|

A|--------3---3---3---3---3------|2-------2---2---2---2---2------|

E|-------------------------------|3-------3---3---3---3---3------|



e|3------ ----3-- ------- -------|------- ------- ------- -------|

B|5-----------5------------------|3-----------3------------------|

G|5-----------5------------------|4-----------4------------------|

D|------------5------------------|5-----------5------------------|

A|-------------------------------|-------------------------------|

E|-------------------------------|-------------------------------|

again tonight telling me





Am

e|0------ 0---0-- 0---0-- 0------|0------ 0---0-- ----0-- 0------|

B|1-------1---1---1---1---1------|1-------1---1-------1---1------|

G|2-------2---2---2---2---2------|2-------2---2-------2---2------|

D|2-------2---2---2---2---2------|2-------2---2-------2---2------|

A|0-------0---0---0---0---0------|0-------0---0-------0---0------|

E|-------------------------------|-------------------------------|



e|------- ------- ------- -------|------- ------- ------- -------|

B|5-----------5------------------|5-----------5------------------|

G|5-----------5------------------|5-----------5------------------|

D|7-----------7------------------|7-----------7------------------|

A|-------------------------------|-------------------------------|

E|-------------------------------|-------------------------------|

there'll be no next time If I just





C G

e|0------ 0---0-- 0---0-- 0------|3------ 3------ 3---3-- 3---3--|

B|1-------1---1---1---1---1------|3-------3-------3---3---3---3--|

G|0-------0---0---0---0---0------|0-------0-------0---0---0---0--|

D|2-------2---2---2---2---2------|0-------0-------0---0---0---0--|

A|3-------3---3---3---3---3------|2-------2-------2---2---2---2--|

E|-------------------------------|3-------3-------3---3---3---3--|



e|3------ ----3-- ------- -------|------- ------- ------- -------|

B|5-----------5------------------|3-----------3------------------|

G|5-----------5------------------|4-----------4------------------|

D|------------5------------------|5-----------5------------------|

A|-------------------------------|-------------------------------|

E|-------------------------------|-------------------------------|

don't treat you right You'll



00:20

Bm

e|2------ 2---2-- 2---2-- 2------|2------ 2---2-- 2---2-- 2------|

B|3-------3---3---3---3---3------|3-------3---3---3---3---3------|

G|4-------4---4---4---4---4------|4-------4---4---4---4---4------|

D|4-------4---4---4---4---4------|4-------4---4---4---4---4------|

A|2-------2---2---2---2---2------|2-------2---2---2---2---2------|

E|-------------------------------|-------------------------------|

Bm7

e|------- ------- ------- -------|------- ------- ------- -------|

B|7-----------7------------------10----------10------------------|

G|7-----------7------------------|7-----------7------------------|

D|9-----------9------------------|9-----------9------------------|

A|-------------------------------|-------------------------------|

E|-------------------------------|-------------------------------|

never leave me and you know it's





REFRAIN

D7

e|2------ 2---2-- 2---2-- 2---2--|2------ 2------ 2------ 2------|

B|1-------1---1---1---1---1---1--|1-------1-------1-------1------|

G|2-------2---2---2---2---2---2--|2-------2-------2-------2------|

D|0-------0---0---0---0---0---0--|0-------0-------0-------0------|

A|-------------------------------|-------------------------------|

E|-------------------------------|-------------------------------|



e|------- ------- ------- -------|------- ------- ------- -------|

B|7-----------7------------------|7-----------7------------------|

G|5-----------5------------------|5-----------5------------------|

D|7-----------7------------------|7-----------7------------------|

A|-------------------------------|-------------------------------|

E|-------------------------------|-------------------------------|

true 'cause you





G C

e|3------ 3---3-- 3---3-- 3------|0------ 0---0-- 0---0-- 0------|

B|3-------3---3---3---3---3------|1-------1---1---1---1---1------|

G|0-------0---0---0---0---0------|0-------0---0---0---0---0------|

D|0-------0---0---0---0---0------|2-------2---2---2---2---2------|

A|2-------2---2---2---2---2------|3-------3---3---3---3---3------|

E|3-------3---3---3---3---3------|-------------------------------|



e|------- ------- ------- -------|------- ------- ------- -------|

B|3-----------3------------------|-------------------------------|

G|4-----------4------------------|0-----------0------------------|

D|5-----------5------------------|2-----------2------------------|

A|-------------------------------|3-----------3------------------|

E|-------------------------------|-------------------------------|

like me too much and I like you





D

e|2------ 2---2-- 2---2-- 2---2--|2------ 2---2-- 2---2-- 2------|

B|3-------3---3---3---3---3---3--|3-------3---3---3---3---3------|

G|2-------2---2---2---2---2---2--|2-------2---2---2---2---2------|

D|0-------0---0---0---0---0---0--|0-------0---0---0---0---0------|

A|-------------------------------|-------------------------------|

E|-------------------------------|-------------------------------|



e|------- ------- ------- -------|------- ------- ------- -------|

B|-------------------------------|-------------------------------|

G|2-----------4------------------|2-----------4------------------|

D|4-----------4------------------|4-----------4------------------|

A|5-----------5------------------|5-----------5------------------|

E|-------------------------------|-------------------------------|

You've



VERSE

00:31



e|0------ 0---0-- 0------ 0------|0---0-- 0------ 0---0-- -------|

B|1-------1---1---1-------1------|1---1---1-------1---1----------|

G|2-------2---2---2-------2------|2---2---2-------2---2----------|

D|2-------2---2---2-------2------|2---2---2-------2---2----------|

A|0-------0---0---0-------0------|0---0---0-------0---0----------|

E|-------------------------------|-------------------------------|



e|------- ------- ------- -------|3------ ----3-- ------- -------|

B|5-----------5------------------|5-----------5------------------|

G|5-----------5------------------|5-----------5------------------|

D|7-----------7------------------|-------------------------------|

A|-------------------------------|-------------------------------|

E|-------------------------------|-------------------------------|

tried before to leave me, but you







e|3---3-- 3------ 3------ -------|3------ 3------ 3---3-- 3---3--|

B|0---0---0-------0--------------|0-------0-------0---0---0---0--|

G|0---0---0-------0--------------|0-------0-------0---0---0---0--|

D|0---0---0-------0--------------|0-------0-------0---0---0---0--|

A|2---2---2-------2--------------|2-------2-------2---2---2---2--|

E|3---3---3-------3--------------|3-------3-------3---3---3---3--|



e|7------ ----7-- ------- -------|------- ------- ------- -------|

B|8-----------8------------------|3-----------3------------------|

G|9-----------9------------------|4-----------4------------------|

D10----------10------------------|5-----------5------------------|

A|-------------------------------|-------------------------------|

E|-------------------------------|-------------------------------|

haven't got the nerve To walk out







e|0------ 0------ 0------ ----0--|0------ 0------ 0------ 0------|

B|1-------1-------1-----------1--|1-------1-------1-------1------|

G|2-------2-------2-----------2--|2-------2-------2-------2------|

D|2-------2-------2-----------2--|2-------2-------2-------2------|

A|0-------0-------0-----------0--|0-------0-------0-------0------|

E|-------------------------------|-------------------------------|



e|------- ------- ------- -------|------- ------- ------- -------|

B|5-----------5------------------|5-----------5------------------|

G|5-----------5------------------|5-----------5------------------|

D|7-----------7------------------|7-----------7------------------|

A|-------------------------------|-------------------------------|

E|-------------------------------|-------------------------------|

and make me lonely Which is all







e|3------ 3------ 3---3-- 3------|1------ 1------ 1---1-- 1------|

B|0-------0-------0---0---0------|2-------2-------2---2---2------|

G|0-------0-------0---0---0------|0-------0-------0---0---0------|

D|0-------0-------0---0---0------|0-------0-------0---0---0------|

A|2-------2-------2---2---2------|2-------2-------2---2---2------|

E|3-------3-------3---3---3------|3-------3-------3---3---3------|



e|3------ ----3-- ------- -------|------- ------- ------- -------|

B|5-----------5------------------|6-----------6------------------|

G|5-----------5------------------|4-----------4------------------|

D|-------------------------------|5-----------5------------------|

A|-------------------------------|-------------------------------|

E|-------------------------------|-------------------------------|

that deserve You'll

I

00:42



e|2------ 2---2-- 2---2-- 2------|2------ 2---2-- 2------ 2---2--|

B|3-------3---3---3---3---3------|3-------3---3---3-------3---3--|

G|4-------4---4---4---4---4------|4-------4---4---4-------4---4--|

D|4-------4---4---4---4---4------|4-------4---4---4-------4---4--|

A|2-------2---2---2---2---2------|2-------2---2---2-------2---2--|

E|-------------------------------|-------------------------------|



e|------- ------- ------- -------|------- ------- ------- -------|

B10----------10------------------10----------10------------------|

G|7-----------7------------------|7-----------7------------------|

D|9-----------9------------------|9-----------9------------------|

A|-------------------------------|-------------------------------|

E|-------------------------------|-------------------------------|

never leave me and you know it's





REFRAIN



e|2------ 2------ 2---2-- 2------|2------ 2------ 2------ 2------|

B|1-------1-------1---1---1------|1-------1-------1-------1------|

G|2-------2-------2---2---2------|2-------2-------2-------2------|

D|0-------0-------0---0---0------|0-------0-------0-------0------|

A|-------------------------------|-------------------------------|

E|-------------------------------|-------------------------------|



e|------- ------- ------- -------|------- ------- ------- -------|

B|7-----------7------------------|7-----------7------------------|

G|5-----------5------------------|5-----------5------------------|

D|7-----------7------------------|7-----------7------------------|

A|-------------------------------|-------------------------------|

E|-------------------------------|-------------------------------|

true 'cause you







e|3------ 3---3-- 3------ 3------|0------ 0---0-- 0------ 0------|

B|3-------3---3---3-------3------|1-------1---1---1-------1------|

G|0-------0---0---0-------0------|0-------0---0---0-------0------|

D|0-------0---0---0-------0------|2-------2---2---2-------2------|

A|2-------2---2---2-------2------|3-------3---3---3-------3------|

E|3-------3---3---3-------3------|-------------------------------|



e|------- ------- ------- -------|------- ------- ------- -------|

B|6-----------6------------------|-------------------------------|

G|4-----------4------------------|0-----------0------------------|

D|5-----------5------------------|2-----------2------------------|

A|-------------------------------|3-----------3------------------|

E|-------------------------------|-------------------------------|

like me too much and I like you







e|2------ 2------ 2---2-- 2------|2------ 2---2-- 2---2-- 2------|

B|3-------3-------3---3---3------|3-------3---3---3---3---3------|

G|2-------2-------2---2---2------|2-------2---2---2---2---2------|

D|0-------0-------0---0---0------|0-------0---0---0---0---0------|

A|-------------------------------|-------------------------------|

E|-------------------------------|-------------------------------|



e|------- ------- ------- -------|------- ------- ------- -------|

B|-------------------------------|1-----------1-----------1------|

G|2-----------2------------------|2-----------2-----------2------|

D|4-----------4------------------|4-----------4-----------4------|

A|5-----------5------------------|-------------------------------|

E|-------------------------------|-------------------------------|





MIDDLE EIGHT

00:53

Em

e|0------ 0---0-- 0---0-- 0------|0------ 0------ 0---0-- 0------|

B|0-------0---0---0---0---0------|0-------0-------0---0---0------|

G|0-------0---0---0---0---0------|0-------0-------0---0---0------|

D|2-------2---2---2---2---2------|2-------2-------2---2---2------|

A|2-------2---2---2---2---2------|2-------2-------2---2---2------|

E|0-------0---0---0---0---0------|0-------0-------0---0---0------|



e|------- ------- ------- -------|------- ------- ------- -------|

B|0-------0-----------0----------|0-----------0-------0----------|

G|0-------0-----------0----------|0-----------0-------0----------|

D|2-------2-----------2----------|2-----------2-------2----------|

A|-------------------------------|-------------------------------|

E|-------------------------------|-------------------------------|

I really do





A

e|0------ 0------ 0---0-- 0---0--|0------ 0------ 0---0-- 0------|

B|2-------2-------2---2---2---2--|2-------2-------2---2---2------|

G|2-------2-------2---2---2---2--|2-------2-------2---2---2------|

D|2-------2-------2---2---2---2--|2-------2-------2---2---2------|

A|0-------0-------0---0---0---0--|0-------0-------0---0---0------|

E|-------------------------------|-------------------------------|

A7

e|------- ------- ------- -------|------- ------- ------- -------|

B|-------------------------------|-------------------------------|

G|0-------0-----------0----------|0-------0-----------0-------0--|

D|2-------2-----------2----------|2-------2-----------2-------2--|

A|4-------4-----------4----------|4-------4-----------4-------4--|

E|5-------5-----------5----------|5-------5-----------5-------5--|

and it's nice





Em A

e|0------ 0------ 0---0-- 0------|0------ 0------ 0---0-- 0------|

B|0-------0-------0---0---0------|2-------2-------2---2---2------|

G|0-------0-------0---0---0------|2-------2-------2---2---2------|

D|2-------2-------2---2---2------|2-------2-------2---2---2------|

A|2-------2-------2---2---2------|0-------0-------0---0---0------|

E|0-------0-------0---0---0------|-------------------------------|

A7

e|------- ------- ------- -------|------- ------- ------- -------|

B|-------------------------------|-------------------------------|

G|-------------------------------|--------0-----------0-------0--|

D|--------4-----------4-------4--|--------2-----------2-------2--|

A|--------5-----------5-------5--|--------0-----------0-------0--|

E|--------7-----------7-------7--|-------------------------------|

when you believe me





D7

e|0------ ----0-- ----0-- 0---0--|0------ 0------ ----2-- 2------|

B|0-----------2-------2---2---2--|2-------2-----------1---1------|

G|0-----------2-------2---2---2--|2-------2-----------2---2------|

D|2-----------2-------2---2---2--|2-------2-----------0---0------|

A|2-----------0-------0---0---0--|0-------0----------------------|

E|0------------------------------|-------------------------------|

A5 A

e|------- ------- ------- -------|------- ------- ------- -------|

B|-------------------------------|-------------------------------|

G|--------2----------------------|--------------------2----------|

D|--------2-----------2----------|2-------2-----------2----------|

A|--------0-----------0----------|0-------0-----------4----------|

E|-------------------------------|--------------------5----------|

If you leave me







VERSE

01:04

I will follow you

And bring you back where you belong

'cause I could't really stand it

I admit that I was wrong.



01:15

I wouldn't let you leave me 'cause it's true



REFRAIN

01:20

'cause you like me too much and I like you.





SOLO

x X x x



e|2------ 2------ 2------ 2---2--|2------ 2---2-- 2---2-- 2------|

B|1-------1-------1-------1---1--|1-------1---1---1---1---1------|

G|2-------2-------2-------2---2--|2-------2---2---2---2---2------|

D|0-------0-------0-------0---0--|0-------0---0---0---0---0------|

A|-------------------------------|-------------------------------|

E|-------------------------------|-------------------------------|



e|------- ------- ------- -------|------- ------- ------- -------|

B|--------7-----------7----------|7-------7-----------7----------|

G|--------5-----------5----------|5-------5-----------5----------|

D|--------4-----------5----------|4-------4-----------4----------|

A|--------5-----------5----------|5-------5-----------5----------|

E|-------------------------------|-------------------------------|



e|------- ------- ------- -------|------- 10----- ------- -------|

B|-------------------------------|--------12-----11--10-------8--|

G|-------------------------------|-------------------------------|

D|-------------------------------|-------------------------------|

A|-------------------------------|-------------------------------|

E|-------------------------------|-------------------------------|



e|------- ------- ------- -------|------- ------- ------- -------|

B|-------------------------------|-------------------------------|

G|-------------------------------|-------------------------------|

D|-------------------------------|--------12-----11--10-------9--|

A|-------------------------------|-------------------------------|

E|-------------------------------|-------------------------------|







01:25

G

e|------- ------- ------- -------|------- 10----- ------- -------|

B|-------------------------------|--------12-----11--10-------8--|

G|-------------------------------|-------------------------------|

D|-------------------------------|-------------------------------|

A|-------------------------------|-------------------------------|

E|-------------------------------|-------------------------------|



e|------- ------- ------- -------|------- ------- ------- -------|

B|-------------------------------|-------------------------------|

G|-------------------------------|-------------------------------|

D|-------------------------------|--------12-----11--10-------9--|

A|-------------------------------|-------------------------------|

E|-------------------------------|-------------------------------|



e|------- ------- ------- -------|------- ------- ------- -------|

B|-------------------------------|-------------------------------|

G|--------4-------5---6--------7-7-7-7-7-7-7-7-7-7-7-7-7-7-------|

D|-----/-5--------7---8-------9-9|9-9-9-9-9-9-9-9-9-9-9-9--------|

A|-------------------------------|-------------------------------|

E|-------------------------------|-------------------------------|









e|------- ------- ------- -------|------- ------- ------- -------|

B|-------------------------------|-------------------------------|

G|-------------------------------|--------5-------7---8-------9--|

D|-------------------------------|-------------------------------|

A|-------------------------------|-------------------------------|

E|-------------------------------|-------------------------------|



e|------- ------- ------- -------|------- ------- ------- -------|

B|-------------------------------|-------------------------------|

G|-------------------------------|-------------------------------|

D|-------------------------------|-------------------------------|

A|-------------------------------|--------7-------8---9------10--|

E|-------------------------------|-------------------------------|



e|------- ------- ------- -------|------- ------- ------- -------|

B|-------------------------------|-------------------------------|

G|--------4-------5---6--------7-7-7-7-7-7-7-7-7-7-7-7-7-7-------|

D|-----/-5--------7---8-------9-9|9-9-9-9-9-9-9-9-9-9-9-9--------|

A|-------------------------------|-------------------------------|

E|-------------------------------|-------------------------------|







C

e|------- ------- ------- -------|------- 10----- ------- -------|

B|-------------------------------|--------12-----11--10-------8--|

G|-------------------------------|-------------------------------|

D|-------------------------------|-------------------------------|

A|-------------------------------|-------------------------------|

E|-------------------------------|-------------------------------|



e|------- ------- ------- -------|------- ------- ------- -------|

B|-------------------------------|-------------------------------|

G|-------------------------------|-------------------------------|

D|-------------------------------|--------12-----11--10-------9--|

A|-------------------------------|-------------------------------|

E|-------------------------------|-------------------------------|



e|------- 12----- 11--10- -----8-8-8-8-8-8-8-8-8-8-8-8-8- -------|

B|-------------------------------|-------------------------------|

G|--------12------11--10------9-9|9-9-9-9-9-9-9-9-9-9-9-9--------|

D|-------------------------------|-------------------------------|

A|-------------------------------|-------------------------------|

E|-------------------------------|-------------------------------|







G

e|------- ------- ------- -------|------- 7------ 8---9-- ---10--|

B|-------------------------------|-------------------------------|

G|-------------------------------|-------------------------------|

D|-------------------------------|-------------------------------|

A|-------------------------------|-------------------------------|

E|-------------------------------|-------------------------------|



e|------- ------- ------- -------|------- ------- ------- -------|

B|-------------------------------|-------------------------------|

G|-------------------------------|--------7-------9--10------11--|

D|-------------------------------|-------------------------------|

A|-------------------------------|-------------------------------|

E|-------------------------------|-------------------------------|



e|------- ------- ------- -------|------- ------- ------- -------|

B|-------------------------------|-------------------------------|

G|--------4-------5---6--------7-7-7-7-7-7-7-7-7-7-7-7-7-7-------|

D|-----/-5--------7---8-------9-9|9-9-9-9-9-9-9-9-9-9-9-9--------|

A|-------------------------------|-------------------------------|

E|-------------------------------|-------------------------------|







D

e|------- ------- ------- -------|------- 10----- 8--10-- -------|

B|-------------------------------|---------------------------10--|

G|-------------------------------|-------------------------------|

D|-------------------------------|-------------------------------|

A|-------------------------------|-------------------------------|

E|-------------------------------|-------------------------------|



e|------- ------- ------- -------|------- ------- ------- -------|

B|-------------------------------|-------------------------------|

G|-------------------------------|--------11------9--------------|

D|-------------------------------|-------------------12------10--|

A|-------------------------------|-------------------------------|

E|-------------------------------|-------------------------------|



e|------- ------- ------- -------|------- ------- ------- -------|

B|--------10------9---8--------7-7-7-7-7-7-7-7-7-7-7-7-7---------|

G|--------11-----10---9-------7-7|7-7-7-7-7-7-7-7-7-7-7-7--------|

D|-------------------------------|-------------------------------|

A|-------------------------------|-------------------------------|

E|-------------------------------|-------------------------------|





REFRAIN



e|------- ------- ------- -------|------- ------- ------- -------|

B|-------------------------------|-------------------------------|

G|-------------------------------|-------------------------------|

D|-------------------------------|-------------------------------|

A|-------------------------------|-------------------------------|

E|-------------------------------|-------------------------------|



e|------- ------- ------- -------|------- ------- ------- -------|

B|-------------------------------|-------------------------------|

G|-------------------------------|-------------------------------|

D|-------------------------------|-------------------------------|

A|-------------------------------|-------------------------------|

E|-------------------------------|-------------------------------|



e|------- ------- ------- -------|------- ------- ------- -------|

B|--------7-------8---9-------10-10-10-10-10-10-10-10-10---------|

G|--------7-------9--10------11-11-11-11-11-11-11-11-11-11-------|

D|-------------------------------|-------------------------------|

A|-------------------------------|-------------------------------|

E|-------------------------------|-------------------------------|

'cause you







01:42

like me too much and I like you.



01:47

MIDDLE EIGHT

I really do, and it's nice when you believe me

If you leave me



VERSE

01:58

I will follow you

and bring you back where you belong

'cause I could't really stand it

I admit that I was wrong



02:09

I wouldn't let you leave me 'cause it's true



02:14

CODA

'cause you like me too much and I like you,

'cause you





02:20

G C

e|3------ 3------ 3---3-- 3------|0------ 0---0-- 0------ 0------|

B|3-------3-------3---3---3------|1-------1---1---1-------1------|

G|0-------0-------0---0---0------|0-------0---0---0-------0------|

D|0-------0-------0---0---0------|2-------2---2---2-------2------|

A|2-------2-------2---2---2------|3-------3---3---3-------3------|

E|3-------3-------3---3---3------|-------------------------------|



e|------- ------- ------- -------|------- ------- ------- -------|

B|3-----------3------------------|-------------------------------|

G|4-----------4------------------|0-----------0------------------|

D|5-----------5------------------|2-----------2------------------|

A|-------------------------------|3-----------3------------------|

E|-------------------------------|-------------------------------|

like me too much and I like you







D

e|2------ 2------ 2---2-- 2---2--|2------ 2------ 2---2-- 2---2--|

B|3-------3-------3---3---3---3--|3-------3-------3---3---3---3--|

G|2-------2-------2---2---2---2--|2-------2-------2---2---2---2--|

D|0-------0-------0---0---0---0--|0-------0-------0---0---0---0--|

A|-------------------------------|-------------------------------|

E|-------------------------------|-------------------------------|



e|------- ------- ------- -------|------- ------- ------- -------|

B|-------------------------------|-------------------------------|

G|2-----------2------------------|2------------------------------|

D|4-----------4------------------|4------------------------------|

A|5-----------5------------------|5------------------------------|

E|-------------------------------|-------------------------------|



e|------- ------- ------- -------|------- ------- ------- -------|

B|-------------------------------|-------------------------------|

G|-------------------------------|--------4-------5---6--------7-7

D|-------------------------------|--------5-------7---8-------9-9|

A|-------------------------------|-------------------------------|

E|-------------------------------|-------------------------------|







02:25

G

e|3------ 3---3-- 3---3-- 3---3--|3------ 3---3-- 3---3-- 3------|

B|3-------3---3---3---3---3---3--|3-------3---3---3---3---3------|

G|0-------0---0---0---0---0---0--|0-------0---0---0---0---0------|

D|0-------0---0---0---0---0---0--|0-------0---0---0---0---0------|

A|2-------2---2---2---2---2---2--|2-------2---2---2---2---2------|

E|3-------3---3---3---3---3---3--|3-------3---3---3---3---3------|



e|------- ------- ------- -------|------- ------- ------- -------|

B|3----------3-------------------|3-----------3------------------|

G|4----------4-------------------|4-----------4------------------|

D|5----------5-------------------|5-----------5------------------|

A|-------------------------------|-------------------------------|

E|-------------------------------|-------------------------------|



e|------- ------- ------- -------|------- ------- ------- -------|

B|-------------------------------|-------------------------------|

G7-7-7-7-7-7-7-7-7-7-7-7-7-7-7-7-|-9--9--9--9--9---7-7-7---9--9--|

D|9-9-9-9-9-9-9-9-9-9-9-9-9-9-9--10-10-10-10-10---9-9-9--10-10-10|

A|-------------------------------|-------------------------------|

E|-------------------------------|-------------------------------|











Bb D

e|1------ 1------ 1---1-- 1------|2------ 2------ 2---2-- 2------|

B|3-------3-------3---3---3---0--|3-------3-------3---3---3---0--|

G|3-------3-------3---3---3---0--|2-------2-------2---2---2---0--|

D|3-------3-------3---3---3---0--|0-------0-------0---0---0---0--|

A|1-------1-------1---1---1------|-------------------------------|

E|-------------------------------|-------------------------------|

Gm D

e|------- ------- ------- -------|------- ------- ------- -------|

B|3-----------3------------------|3-----------3------------------|

G|3-----------3------------------|3-----------2------------------|

D|5-----------5------------------|5-----------4------------------|

A|-------------------------------|-------------------------------|

E|-------------------------------|-------------------------------|



e|------- ------- ------- -------|------- ------- ------- -------|

B|-------------------------------|-------------------------------|

G|10-10-10-10-10-10-10-10-10-10-10-10-10-10-10-10--9--9--9--9--9-|

D12-12-12-12-12-12-12-12-12-12-12-12-12-12-12-12-10-10-10-10-10-8/

A|-------------------------------|-------------------------------|

E|-------------------------------|-------------------------------|







(.

G

e|3------ ------- ------- -------|------- ------- ------- -------|

B|3------------------------------|-------------------------------|

G|0------------------------------|-------------------------------|

D|0------------------------------|-------------------------------|

A|2------------------------------|-------------------------------|

E|3------------------------------|-------------------------------|



e|------- ------- ------- -------|------- ------- ------- -------|

B|3------------------------------|-------------------------------|

G|4------------------------------|-------------------------------|

D|5------------------------------|-------------------------------|

A|-------------------------------|-------------------------------|

E|-------------------------------|-------------------------------|



e|-7----- ------- ------- -------|------- ------- ------- -------|

B|-8-----------------------------|-------------------------------|

G|-7-----------------------------|-------------------------------|

D|9------------------------------|-------------------------------|

A|-------------------------------|-------------------------------|

E|-------------------------------|-------------------------------|











. . . . .











Just in case you want to give it a try, here's the guitar solo,

which can be played easily with just one guitar:









e|------- ------- ------- -------|------- 10----- ------- -------|

B|-------------------------------|--------12-----11--10-------8--|

G|-------------------------------|-------------------------------|

D|-------------------------------|--------12-----11--10-------9--|

A|-------------------------------|-------------------------------|

E|-------------------------------|-------------------------------|





SOLO

01:25

G

e|------- ------- ------- -------|------- 10----- ------- -------|

B|-------------------------------|--------12-----11--10-------8--|

G|-------------------------------|-------------------------------|

D|-------------------------------|--------12-----11--10-------9--|

A|-------------------------------|-------------------------------|

E|-------------------------------|-------------------------------|



e|------- ------- ------- -------|------- ------- ------- -------|

B|-------------------------------|-------------------------------|

G|--------4-------5---6--------7-7-7-7-7-7-7-7-7-7-7-7-7-7-------|

D|-----/-5--------7---8-------9-9|9-9-9-9-9-9-9-9-9-9-9-9--------|

A|-------------------------------|-------------------------------|

E|-------------------------------|-------------------------------|









e|------- ------- ------- -------|------- ------- ------- -------|

B|-------------------------------|-------------------------------|

G|-------------------------------|--------5-------7---8-------9--|

D|-------------------------------|-------------------------------|

A|-------------------------------|--------7-------8---9------10--|

E|-------------------------------|-------------------------------|



e|------- ------- ------- -------|------- ------- ------- -------|

B|-------------------------------|-------------------------------|

G|--------4-------5---6--------7-7-7-7-7-7-7-7-7-7-7-7-7-7-------|

D|-----/-5--------7---8-------9-9|9-9-9-9-9-9-9-9-9-9-9-9--------|

A|-------------------------------|-------------------------------|

E|-------------------------------|-------------------------------|







C

e|------- ------- ------- -------|------- 10----- ------- -------|

B|-------------------------------|--------12-----11--10-------8--|

G|-------------------------------|-------------------------------|

D|-------------------------------|--------12-----11--10-------9--|

A|-------------------------------|-------------------------------|

E|-------------------------------|-------------------------------|



e|------- 12----- 11--10- -----8-8-8-8-8-8-8-8-8-8-8-8-8- -------|

B|-------------------------------|-------------------------------|

G|--------12------11--10------9-9|9-9-9-9-9-9-9-9-9-9-9-9--------|

D|-------------------------------|-------------------------------|

A|-------------------------------|-------------------------------|

E|-------------------------------|-------------------------------|







G

e|------- ------- ------- -------|------- 7------ 8---9-- ---10--|

B|-------------------------------|-------------------------------|

G|-------------------------------|--------7-------9--10------11--|

D|-------------------------------|-------------------------------|

A|-------------------------------|-------------------------------|

E|-------------------------------|-------------------------------|



e|------- ------- ------- -------|------- ------- ------- -------|

B|-------------------------------|-------------------------------|

G|--------4-------5---6--------7-7-7-7-7-7-7-7-7-7-7-7-7-7-------|

D|-----/-5--------7---8-------9-9|9-9-9-9-9-9-9-9-9-9-9-9--------|

A|-------------------------------|-------------------------------|

E|-------------------------------|-------------------------------|







D

e|------- ------- ------- -------|------- 10----- 8--10-- -------|

B|-------------------------------|---------------------------10--|

G|-------------------------------|--------11------9--------------|

D|-------------------------------|-------------------12------10--|

A|-------------------------------|-------------------------------|

E|-------------------------------|-------------------------------|



e|------- ------- ------- -------|------- ------- ------- -------|

B|--------10------9---8--------7-7-7-7-7-7-7-7-7-7-7-7-7---------|

G|--------11-----10---9-------7-7|7-7-7-7-7-7-7-7-7-7-7-7--------|

D|-------------------------------|-------------------------------|

A|-------------------------------|-------------------------------|

E|-------------------------------|-------------------------------|









e|------- ------- ------- -------|------- ------- ------- -------|

B|-------------------------------|-------------------------------|

G|-------------------------------|-------------------------------|

D|-------------------------------|-------------------------------|

A|-------------------------------|-------------------------------|

E|-------------------------------|-------------------------------|



e|------- ------- ------- -------|------- ------- ------- -------|

B|--------7-------8---9-------10-10-10-10-10-10-10-10-10---------|

G|--------7-------9--10------11-11-11-11-11-11-11-11-11-11-------|

D|-------------------------------|-------------------------------|

A|-------------------------------|-------------------------------|

E|-------------------------------|-------------------------------|



















B Bend

R Release

/ Slide up

\ Slide down

H Hammer-on

P Pull-off

~ Vibrato

+ Harmonic

x Mute note

. Play note like a dot in standard notation

^ Ties two notes together

(. Pause







Added by tabs-database.com and our distinguished partners
Get this song at amazon.com      Ebay     Ringtones Ringtones  


Learn to play: Songwriting, Piano, Harmonica, Guitar

Related Beatles Tabs

Andiloveher tabs
Youve Got To Hide Your Love Away Bass tabs
Ill Get You tabs
Herecomesthesun tabs
Baby Youre A Rich Man tabs
Badboy tabs
Babys In Black tabs
Across The Universe tabs
Happiness Is A Warm Gun tabs
Penny Lane tabs
Allyouneedislove tabs
Think For Yourself tabs
Shes A Woman Bass tabs
A Hard Days Night Solo tabs
Everybodys Tryin To Be My Babe tabs
Ob La Di Ob La Da Bass tabs
For You Blue tabs
Mean Mr Mustard tabs
Helter Skelter tabs
Drive My Car tabs


Guitar Tabs









All tabs are property and copyright of their owners. All tabs provided for educational purposes only. Privacy Policy, DMCA