Beatles

Yes It Is Bass Tabs



More from Beatles

Beatles Tabs
Beatles Chords
Beatles Bass
Beatles Lyrics

Yes It Is

The Beatles

Written by John Lennon and Paul McCartney; released on single "Ticket To

Ride / Yes It Is"



This song is wonderful, I love those three-part vocals. But my favourite

part is that where they switch to G# major in the last verse (yes it is,

it's true,...)



6/8 time



Intro:

G|----------- -----------|----------- -----------|----------- -----------|

D|-----------------------|-----------------------|-----------------------|

A|-----------------------|-----------------------|-----------------------|

E|------------7----\-----|0----------------------|-----------------------|





Verse:

G|----------- -----------|----------- -----------|----------- -----------|

D|-----------------------|7----------------------|-----------------------|

A|7----------------------|-----------------------|9----------------------|

E|-----------------------|-----------------------|-----------------------|

If you wear red to- night,





G|----------- -----------|----------- -----------|----------- -----------|

D|-----------------------|-----------------------|7----------------------|

A|------------6----------|7----------------------|-----------------------|

E|7----------------------|-----------------------|-----------------------|

Re- member what I said to-





G|----------- -----------|----------- -----------|----------- -----------|

D|-----------------------|-----------------------|6----------------------|

A|5----------------------|-----------------------|--------------------6--|

E|-----------------------|7----------------------|-----------------------|

night, For red is the





G|----------- -----------|----------- -----------|----------- -----------|

D|6----------------------|7----------------------|-----------------------|

A|-----------------------|-----------------------|5----------------------|

E|-----------------------|-----------------------|-----------------------|

colour that my ba- by wore, And what's it's

more,



G|----------- -----------|----------- -----------|----------- -----------|

D|-----------------------|-----------------------|-----------------------|

A|4----------------------|7----------------------|7----------------------|

E|-----------------------|-----------------------|-----------------------|

true, yes, it is



Verse:

G|----------- -----------|----------- -----------|----------- -----------|

D|-----------------------|7----------------------|-----------------------|

A|7----------------------|-----------------------|9-----------9----------|

E|-----------------------|-----------------------|-----------------------|

Scarlet were the clothes she wore,





G|----------- -----------|----------- -----------|----------- -----------|

D|-----------------------|-----------------------|7-----------7----------|

A|------------6----------|7----------------------|-----------------------|

E|7----------------------|-----------------------|-----------------------|

Every - bo- dy knows, I'm





G|----------- -----------|----------- -----------|----------- -----------|

D|-----------------------|-----------------------|6----------------------|

A|5----------------------|-----------------------|--------------------6--|

E|-----------------------|7----------------------|-----------------------|

sure I would re-





G|----------- -----------|----------- -----------|----------- -----------|

D|6----------------------|7----------------------|-----------------------|

A|-----------------------|-----------------------|5-----------5----------|

E|-----------------------|-----------------------|-----------------------|

member all the things we planned, Understand, it's





G|----------- -----------|----------- -----------|----------- -----------|

D|-----------------------|-----------------------|-----------------------|

A|4----------------------|7----------------------|7----------------------|

E|-----------------------|-----------------------|-----------------------|

true, yes, it is, it's true,





G|----------- -----------|

D|-----------------------|

A|7----------------------|

E|-----------------------|

yes, it is



Bridge:

G|----------- -----------|----------- -----------|----------- -----------|

D|-----------------------|-----------------------|7-----------7-------7--|

A|-----------------------|7-----------7----------|-----------------------|

E|7-----------7----------|-----------------------|-----------------------|

I could be happy with you by my





G|----------- -----------|----------- -----------|----------- -----------|

D|-----------------------|-----------------------|-----------------------|

A|9----------------------|-----------------------|7----------------------|

E|--------------------9--|7-----------7----------|-----------------------|

side, If I could for - get her, but





G|----------- -----------|----------- -----------|----------- -----------|

D|-----------------------|-----------------------|-----------------------|

A|4----------------------|7-----------7----------|9-----------9----------|

E|-----------------------|-----------------------|-----------------------|

it's my yes, it is, yes, it is, oh, yes, it is,

pride,

Aaaaaaaaaaaaaaaaaaaaaaaaaaaaaaaaaaaaaaaaaaaaaaaaaaaaaaaaaaaaaaaaaaaaaaa

G|----------- -----------|

D|9-----------9----------|

A|-----------------------|

E|-----------------------|

yeah!

aaaaaaaaaaaa

Verse:

G|----------- -----------|----------- -----------|----------- -----------|

D|-----------------------|7-----------7----------|-----------------------|

A|7----------------------|-----------------------|9-----------9----------|

E|-----------------------|-----------------------|-----------------------|

Please don't wear red to- night,





G|----------- -----------|----------- -----------|----------- -----------|

D|-----------------------|-----------------------|7-----------7----------|

A|------------6----------|7----------------------|-----------------------|

E|7----------------------|-----------------------|-----------------------|

This is what I said to-





G|----------- -----------|----------- -----------|----------- -----------|

D|-----------------------|-----------------------|6-----------6----------|

A|5-----------5----------|-----------------------|--------------------6--|

E|-----------------------|7-----------7----------|-----------------------|

night, For red is the





G|----------- -----------|----------- -----------|----------- -----------|

D|6-----------6----------|7-------------------7--|-----------------------|

A|-----------------------|-----------------------|5-----------5----------|

E|-----------------------|-----------------------|-----------------------|

colour that will make me blue, In spite of you, it's





G|----------- -----------|----------- -----------|----------- -----------|

D|-----------------------|-----------/9----------|-----------------------|

A|4----------------------|7----------------------|7----------------------|

E|-----------------------|-----------------------|-----------------------|

true, yes, it is, it's true,





G|----------- -----------|

D|-----------------------|

A|7-----------7----------|

E|-----------------------|

yes, it is



Bridge:

G|----------- -----------|----------- -----------|----------- -----------|

D|-----------------------|-----------------------|7-----------6----------|

A|-----------------------|7-----------7----------|-----------------------|

E|7-----------7----------|-----------------------|-----------------------|

I could be happy with you by my





G|----------- -----------|----------- -----------|----------- -----------|

D|-----------------------|-----------------------|-----------------------|

A|9-----------9----------|------------9----------|7-------------------5--|

E|--------------------9--|7-------------------7--|-----------------------|

side, If I could for - get her, but





G|----------- -----------|----------- -----------|----------- -----------|

D|-----------------------|-----------------------|-----------------------|

A|4----------------------|7-----------7----------|9-----------9----------|

E|-----------------------|-----------------------|-----------------------|

it's my yes, it is, yes, it is, oh, yes, it is,

pride,

Aaaaaaaaaaaaaaaaaaaaaaaaaaaaaaaaaaaaaaaaaaaaaaaaaaaaaaaaaaaaaaaaaaaaaaa

G|----------- -----------|

D|9-----------9----------|

A|-----------------------|

E|-----------------------|

yeah!

aaaaaaaaaaaa

Verse:

G|----------- -----------|----------- -----------|----------- -----------|

D|-----------------------|7-----------7-------6--|-----------------------|

A|7-----------7----------|-----------------------|9-----------9----------|

E|-----------------------|-----------------------|-----------------------|

Please don't wear red to- night,





G|----------- -----------|----------- -----------|----------- -----------|

D|-----------------------|-----------------------|7-----------7----------|

A|------------6----------|7----------------------|-----------------------|

E|7----------------------|-----------------------|-----------------------|

This is what I said to-





G|----------- -----------|----------- -----------|----------- -----------|

D|-----------------------|-----------------------|6----------------------|

A|5-----------5----------|-----------------------|--------------------6--|

E|-----------------------|7-----------7----------|-----------------------|

night, For red is the





G|----------- -----------|----------- -----------|----------- -----------|

D|6----------------------|7-------------------7--|-----------------------|

A|-----------------------|-----------------------|5-----------5----------|

E|-----------------------|-----------------------|-----------------------|

colour that will make me blue, In spite of you, it's





G|----------- -----------|----------- -----------|----------- -----------|

D|-----------------------|-----------/9----------|6----------------------|

A|4----------------------|7----------------------|-----------------------|

E|-----------------------|-----------------------|-----------------------|

true, yes, it is, it's true,





G|----------- -----------|----------- -----------|----------- -----------|

D|7----------/9----------|-----------------------|-----------------------|

A|-----------------------|7----------------------|-----------------------|

E|-----------------------|-----------------------|-----------------------|

yes, it is, it's true



Please e-mail me for any corrections.Added by tabs-database.com and our distinguished partners
Get this song at amazon.com      Ebay     Ringtones Ringtones  


Learn to play: Songwriting, Piano, Harmonica, Guitar

Related Beatles Tabs

Hello~c Goodbye tabs
Fool On The Hill tabs
Because tabs
You Know My Name tabs
If I Fell Bass tabs
Dizzy Miss Lizzy Bass tabs
Nowhereman tabs
Please Please Me tabs
A Test Of Honey tabs
Cometogether tabs
Wecanworkitout tabs
Everybodys Got Something To Hide Except For Me And My Monkey tabs
Real Love tabs
Acrosstheuniverse tabs
Hide Your Love Away tabs
Helter Skelter tabs
8 Days A Week tabs
If I Feel tabs
Heyjude tabs
Hey Bulldog tabs


Guitar Tabs









All tabs are property and copyright of their owners. All tabs provided for educational purposes only. Privacy Policy, DMCA