Beatles

Yellow Submarine Bass Tabs



More from Beatles

Beatles Tabs
Beatles Chords
Beatles Bass
Beatles Lyrics

Yellow Submarine – The Beatles
Submitted by; Val Strode
Email: vstrode@hotmail.com

YELLOW SUBMARINE    (Gb - Play capo 1)
G-------------------------------------------------------------------------------------------------------------------------
D-----------------------------------------------------6-------------------------------------------------------------------
A------4-----------------2-----------------6-----------------------2-----------4----------------4-----------2----------
E----------------------------------2-----------------------------------------------------2-----------------------------2-
F      C7       Bb               F       Dm     Gm           Bb         C7   F         C7         Bb    F
In the town, where I was born, lived a man, who sailed to sea. And he told us of his life,
As we live, a life of ease, everyone of us, has all we  need. Sky of blue, sea of green
||||||||||||||||||||||||||||||||||||||||||||||||||||||||||||||||||||||||||||||||||||||||||||||||||||||||||||||||||||||||||||||||||||||||||||||||||||||||||||||||||||||||||||||||||||||||||||||||||||||||||||||||||||||||||||.
G------------------------------------------------------------------------------------------------------------------
D-----------6---------------------------------------------------------------------------6-------------------------
A--6-------------------2-------4------------------4------2-------------------6----------------------2--------4-
E----------------------------------------2------------------------------2-----------------------------------------
    Dm    Gm  Bb     C7         F        C7           Bb     F    Dm     Gm        Bb      C7
    In the land of submarines. So we sailed up to the sun, til we found, a sea of  green.
    In our yellow, submarine (chorus to end)
||||||||||||||||||||||||||||||||||||||||||||||||||||||||||||||||||||||||||||||||||||||||||||||||||||||||||||||||||||||||||||||||||||||||||||||||||||||||||||||||||||||||||||||||||||||||||||||||||||||||||||||||||||||||||||.
wave effects…
G------------------------------------------------------------------------------------------------
D-----------------------------------------------------------6------------------------------------
A------------4-----------2-----------------------6-------------------2-----4-----r----2-1----
E--2-----------------------------------2-----------------------------------------------------4--
   F          C7          Bb          F        Dm      Gm      Bb C7
  And we lived, beneath the waves, in our yellow, submarine.
wave effects…
||||||||||||||||||||||||||||||||||||||||||||||||||||||||||||||||||||||||||||||||||||||||||||||||||||||||||||||||||||||||||||||||||||||||||||||||||||||||||||||||||||||||||||||||||||||||||||||||||||||||||||||||||||||||||||
G-------------------|------------------------------|---/-----------------------|------------------
D-------------------|----------------------------6-|--/-----------------------|-4----4-----------
A------------4------|--4-------------------4-----|---/-----------------------|----4----6-4-----
E—2---4--------4-|-------------4---------------|---/-----------------------|---------------6--
   F                       C7                                                        F
   We all live in a yellow submarine, yellow submarine, yellow submarine.
||||||||||||||||||||||||||||||||||||||||||||||||||||||||||||||||||||||||||||||||||||||||||||||||||||||||||||||||||||||||||||||||||||||||||||||||||||||||||||||||||||||||||||||||||||||||||||||||||||||||||||||||||||||||||||
G-------------------|-----------------------------|-------------------------|--------------------
D-4--------4-------|------------------6----------|------------------------|--------------------
A------4---------4-|---4--------4---------------|--4-----4---------------|-------------------
E-------------------|--------4--------------------|-----4------7—6—4--|--2—2—2---(2)-
   F                       C7                                                         F
   We all live in a yellow submarine, yellow submarine, yellow submarine.
||||||||||||||||||||||||||||||||||||||||||||||||||||||||||||||||||||||||||||||||||||||||||||||||||||||||||||||||||||||||||||||||||||||||||||||||||||||||||||||||||||||||||||||||||||||||||||||||||||||||||||||||||||||||||||
G-----------------------------------------------------------------------------------------------------------------------------------------
D--------------------------------------------------------6--------------------------------------------------------------------------------
A--------------4---------------2--------------6-----------------------------2------------4---------------------4--------2--------------
E--2---------------------------------2--------------------------------------------------------------2-------------------------------2----
   F            C7              Bb F          Dm   Gm                 Bb          C7     F           C7    Bb          F
   And our friends, are all aboard; many more of them, live next door. And the band begins to play…..
People effects….
||||||||||||||||||||||||||||||||||||||||||||||||||||||||||||||||||||||||||||||||||||||||||||||||||||||||||||||||||||||||||||||||||||||||||||||||||||||||||||||||||||||||||||||||||||||||||||||||||||||||||||||||||||||||||||
G------|----------|--------------------
D------|----------|--------------------
A---6-|--------4-|--4---4-----------
E------|--2-------|---------7—6---4-
    F…..                                       (to chorus)



||||||||||||||||||||||||||||||||||||||||||||||||||||||||||||||||||||||||||||||||||||||||||||||||||||||||||||||||||||||||||||||||||||||||||||||||||||||||||||||||||||||||||||||||||||||||||||||||||||||||||||||||||||||||||||G-------------------------------------------------------------------------------------------------------------------------
D-----------------------------------------------------6-------------------------------------------------------------------
A------4-----------------2-----------------6-----------------------2-----------4----------------4-----------2----------
E----------------------------------2-----------------------------------------------------2-----------------------------2-
F        C7       Bb      F      Dm  Gm                                                Bb            C7
           bubbles         bell         “Full speed ahead Mr.boatswain, full speed ahead” “Full speed ahead it is, Sgt”

G------------------------------------------------------------------------------------------------------------------
D-----------6---------------------------------------------------------------------------6-------------------------
A--6-------------------2-------4------------------4------2-------------------6----------------------2--------4-
E----------------------------------------2------------------------------2-----------------------------------------F        C7             Bb     F        Dm     Gm                          Bb   C7
                            Cut the cable, drop the cable Aye Sir, aye, Captain, captain…”
||||||||||||||||||||||||||||||||||||||||||||||||||||||||||||||||||||||||||||||||||||||||||||||||||||||||||||||||||||||||||||||||||||||||||||||||||||||||||||||||||||||||||||||||||||||||||||||||||||||||||||||||||||||||||||
Get this song at amazon.com      Ebay     Ringtones Ringtones  


Learn to play: Songwriting, Piano, Harmonica, Guitar

Related Beatles Bass Tabs

Octopus Garden bass
Shes got a devil in her heart bass
Anna bass
From Me To You bass
Help bass
Drive My Car bass
Oh Darling bass
Ob La Di Ob La Da bass
Back In The Ussr bass
Blue Jay Way bass
Helter Skelter bass
Something bass
Boys bass
Revolution bass
And Your Bird Can Sing bass
Savoy Truffle bass
All My Loving bass
Money live bass
Michelle bass
My Generation bass


Guitar Tabs









All tabs are property and copyright of their owners. All tabs provided for educational purposes only. Privacy Policy, DMCA

Online converter - videoconverter.com