Beatles

Yellow Submarine Bass Tabs



More from Beatles

Beatles Tabs
Beatles Chords
Beatles Bass
Beatles Lyrics



Yellow Submarine The Beatles

Tab By El Gonza webmaster at tabs-database.com.com



Verse 1:

|----------|----------------|

|----------|----------------|

|-------5--|-3--------------|

|----------|-------------3--|

In the town where I was born



|----------|-----------------|

|-2--------|-----------------|

|-------1--|---------------5-|

|----------|-3---------------|

Lived a man who sailed to sea



|-----------|----------------|

|-----------|----------------|

|-------5---|-3--------------|

|-3---------|-------------3--|

And he told us of his life



|-----------|-------------|

|-2---------|-------------|

|-------1---|-----------5-|

|-----------|---3---------|

In the land of submarines



Verse 2:



|-----------|----------------|

|-----------|----------------|

|-------5---|-3--------------|

|-3---------|-------------3--|

So we sailed up to the sun



|------------|---------------|

|-2----------|---------------|

|-------1----|-------------5-|

|------------|-3-------------|

Till we found the sea of green



|------------|----------------|

|------------|----------------|

|-------5----|-3--------------|

|-3----------|-------------3--|

And we lived beneath the waves



|------------|----------|

|-2----------|----------|

|-------1----|--------5-|

|------------|--3-------|

In our yellow submarine



Chorus:



|-------------------|-------------------|

|-------------------|-------------------|

|-------------------|-5---5---5---5---5-|

|-3---3---3---3---3-|-------------------|

We all live in our yellow submarine



|-------------------|-------------------|

|-------------------|-------------------|

|-5---5---5---5---5-|-------------------|

|-------------------|-3---3---3---3---3-|

Yellow submarine, yellow submarine



|-------------------|-------------------|

|-------------------|-------------------|

|-------------------|-5---5---5---5---5-|

|-3---3---3---3---3-|-------------------|

We all live in our yellow submarine



|-------------------|-------------------|

|-------------------|-------------------|

|-5---5---5---5---5-|-------------------|

|-------------------|-3---3---3---3---3-|

Yellow submarine, yellow submarine



Verse 3:



|---------------|----------------|

|---------------|----------------|

|---------5-----|-3--------------|

|-3-------------|-------------3--|

And our friends are all on board



|-------------|------------------|

|-2-----------|------------------|

|-------1-----|----------------5-|

|-------------|-3----------------|

Many more of them live next door



|---------------|----------------|

|---------------|----------------|

|---------5-----|-3--------------|

|-3-------------|-------------3--|

And the band begins to play



(Bands Play)



Chorus:



|-------------------|-------------------|

|-------------------|-------------------|

|-------------------|-5---5---5---5---5-|

|-3---3---3---3---3-|-------------------|

We all live in our yellow submarine



|-------------------|-------------------|

|-------------------|-------------------|

|-5---5---5---5---5-|-------------------|

|-------------------|-3---3---3---3---3-|

Yellow submarine, yellow submarine



|-------------------|-------------------|

|-------------------|-------------------|

|-------------------|-5---5---5---5---5-|

|-3---3---3---3---3-|-------------------|

We all live in our yellow submarine



|-------------------|-------------------|

|-------------------|-------------------|

|-5---5---5---5---5-|-------------------|

|-------------------|-3---3---3---3---3-|

Yellow submarine, yellow submarine



Midle:



|-----------|----------------|

|-----------|----------------|

|-------5---|-3--------------|

|-3---------|-------------3--|



|-----------|----------------|

|-2---------|----------------|

|-------1---|-------------5--|

|-----------|-3--------------|



|-----------|----------------|

|-----------|----------------|

|-------5---|-3--------------|

|-3---------|-------------3--|



|-----------|----------------|

|-2---------|----------------|

|-------1---|-------------5--|

|-----------|-3--------------|



Verse 4:



|-----------|----------------|

|-----------|----------------|

|-------5---|-3--------------|

|-3---------|-------------3--|

As we live a life of ease



|-------------|---------------|

|-2-----------|---------------|

|--------1----|------------5--|

|-------------|-3-------------|

Everyone of us has all we need



|-----------|----------------|

|-----------|----------------|

|-------5---|-3--------------|

|-3---------|-------------3--|

Sky of blue and sea of green



|-------------|------------|

|-2-----------|------------|

|--------1----|---------5--|

|-------------|--3---------|

In our yellow submarine



Chorus:



|-------------------|-------------------|

|-------------------|-------------------|

|-------------------|-5---5---5---5---5-|

|-3---3---3---3---3-|-------------------|

We all live in our yellow submarine



|-------------------|-------------------|

|-------------------|-------------------|

|-5---5---5---5---5-|-------------------|

|-------------------|-3---3---3---3---3-|

Yellow submarine, yellow submarine



|-------------------|-------------------|

|-------------------|-------------------|

|-------------------|-5---5---5---5---5-|

|-3---3---3---3---3-|-------------------|

We all live in our yellow submarine



|-------------------|-------------------|

|-------------------|-------------------|

|-5---5---5---5---5-|-------------------|

|-------------------|-3---3---3---3---3-|

Yellow submarine, yellow submarine





Added by tabs-database.com and our distinguished partners
Get this song at amazon.com      Ebay     Ringtones Ringtones  


Learn to play: Songwriting, Piano, Harmonica, Guitar

Related Beatles Tabs

That Means A Lot tabs
All You Need Is Love Bass tabs
Nowhereman tabs
Dizzy Miss Lizzie tabs
I Dig A Pony tabs
Because tabs
Happines Is A Warm Gun tabs
Being For The Benefit Of Mr Kite tabs
Day Tripper Btab tabs
I Feel Fine2 tabs
And I Love Her tabs
Allyouneedislove tabs
Strawberry Fields Forever tabs
Three Cool Cats tabs
Norwegian Wood tabs
Here Comes The Sun Intro tabs
Like Dreamer Do tabs
I Want To Hold Your Hand tabs
Leave My Kitten Alone tabs
Chains Bass tabs


Guitar Tabs









All tabs are property and copyright of their owners. All tabs provided for educational purposes only. Privacy Policy, DMCA