Beatles

Why Dont We Do It In The Road Bass Tabs



More from Beatles

Beatles Tabs
Beatles Chords
Beatles Bass
Beatles Lyrics



12 bar structure



G----------------------|

D----------------------|

A--5-5-5-5-5-5-5-3-----|

E----------------------|X4



G----------------------|

D--5-5-5-5-5-5-5-3-----|

A----------------------|

E----------------------|X2



G----------------------|

D----------------------|

A--5-5-5-5-5-5-5-3-----|

E----------------------|X2



G--------------------------------------------------------|

D--7-7-7-7-7-7-7-7-6-5-5-5-5-5-5-5-5-3-------------------|

A--------------------------------------5-5-5-5-5-5-5-3-5-|

E--------------------------------------------------------|



G--------------------------------------|

D--------------------------------------|

A--5-5-5-5-5-5-5-3-----5-5-5-5-5-----3-|

E--------------------------------3-5---|



G--------------------------------------|

D--------------------------------------|

A--5-5-5-5-5-5-5-3-----5-5-5-5-5-5-5-5-|

E--------------------------------------|



G---------------------------------------|

D--5-5-5-5-5-5-5-3-----5-5-5-5-5-5------|

A---------------------------------5-5-3-|

E---------------------------------------|



G----------------------------------------|

D----------------------------------------|

A--5-5-5-5-5-5-5-3-----5-5-5-5-5-5-5-5-3-|

E----------------------------------------|



G--------------------------------------------------------|

D--7-7-7-7-7-7-7-7-6-5-5-5-5-5-5-5-5-3-------------------|

A--------------------------------------5-5-5-5-5-5-5-3-5-|

E--------------------------------------------------------|



G----------------------|

D----------------------|

A--5-5-5-5-5-5-5-3-5---|

E----------------------|



(break) "Whyyyyyy Dont We Do It In The Road"



G---------------------------------------------------|

D---------------------------12-12-10-10-7-7-5-5-----|

A--5-5-5-5-5-5-5-0h3-5--5-5---------------------5-5-|

E---------------------------------------------------|





G-----7-7-7-7-5--------------------------|

D---------------7-5----------------------|

A-------------------8--5-5-5-5-5-5-5-5-5-|

E----------------------------------------|



G------------------------------------|

D-5-5-5-5-5-5-5-5-3--5-5-5-5-3-5-5-3-|

A------------------------------------|

E------------------------------------|



G----------------------------------------|

D----------------------------------------|

A--5-5-5-5-5-5-5-3-----5-5-5-5-5-5-5-5-3-|

E----------------------------------------|



G-------------------|

D-7-7-7-7-7-7-7-6-5-|

A-------------------|

E-------------------|Added by tabs-database.com and our distinguished partners
Get this song at amazon.com      Ebay     Ringtones Ringtones  


Learn to play: Songwriting, Piano, Harmonica, Guitar

Related Beatles Tabs

Shes A Woman Bass tabs
She Said She Said tabs
I Wana Hold Your Hand tabs
Old Brown Shoe tabs
Window Window tabs
Eleanorrigby tabs
I Should Have Known Better Bass tabs
One & One Is Two tabs
I Me Mine tabs
Mean Mr Mustard tabs
Glass Onion tabs
Yes It Is tabs
Dontletmedown tabs
Mother Natures Son tabs
Being For The Benefit Of Mr Kite tabs
The Long & Winding Road tabs
And Your Bird Can Sing tabs
Helter Skelter tabs
All You Need Is Love Bass tabs
The fool on a hill tabs


Guitar Tabs









All tabs are property and copyright of their owners. All tabs provided for educational purposes only. Privacy Policy, DMCA