Beatles

Ticket To Ride Bass Tabs



More from Beatles

Beatles Tabs
Beatles Chords
Beatles Bass
Beatles Lyrics

Ticket To Ride

The Beatles

Written by John Lennon and Paul McCartney; released on single "Ticket To Ride / Yes It

and on album "Help!"



Great song, no need to say more :-)



Intro:

G|------- ------- ------- -------|------- ------- ------- -------|

D|-------------------------------|-------------------------------|

A|-------------------------------|-------------------------------|

E|-------------------------------|-------------------------------|







G|------- ------- ------- -------|------- ------- ------- -------|

D|7-----------7---7--------------|7-----------7---7--------------|

A|-------------------------------|-------------------------------|

E|-------------------------------|-------------------------------|

I



Verse:

G|------- ------- ------- -------|------- ------- ------- -------|

D|7-----------7---7--------------|7-----------7---7--------------|

A|-------------------------------|-------------------------------|

E|-------------------------------|-------------------------------|

think I'm gonna be sad, I think it's today,





G|------- ------- ------- -------|------- ------- ------- -------|

D|7-----------7---7--------------|7-----------7---7--------------|

A|-------------------------------|-------------------------------|

E|-------------------------------|-------------------------------|

yeah! The





G|------- ------- ------- -------|------- ------- ------- -------|

D|7-----------7---7--------------|7-----------7---7--------------|

A|-------------------------------|-------------------------------|

E|-------------------------------|-------------------------------|

girl that's driving me mad is going away!





G|------- ------- ------- -------|------- ------- ------- -------|

D|9-----------9---9--------------|-------------------------------|

A|-------------------------------|7-----------7---7--------------|

E|-------------------------------|-------------------------------|







G|------- ------- ------- -------|------- ------- ------- -------|

D|-------------------------------|-------------------------------|

A|9-----------9---9--------------|-------------------------------|

E|-------------------------------|10----------10--10-------------|

She's got a ticket to ride,





G|------- ------- ------- -------|------- ------- ------- -------|

D|-------------------------------|-------------------------------|

A|9-----------9---9-------7------|10-----------------------------|

E|-------------------------------|-------------------------------|

she's got a ticket to ride





G|------- ------- ------- -------|------- ------- ------- -------|

D|-------------------------------|-------------------------------|

A|9-----------9---9--------------|7-----------7---7--------------|

E|-------------------------------|-------------------------------|

She's got a ticket to ride, but she don't care





G|------- ------- ------- -------|------- ------- ------- -------|

D|7-----------7---7--------------|7-----------7---7--------------|

A|-------------------------------|-------------------------------|

E|-------------------------------|-------------------------------|

She



Verse:

G|------- ------- ------- -------|------- ------- ------- -------|

D|7-----------7---7--------------|7-----------7---7--------------|

A|-------------------------------|-------------------------------|

E|-------------------------------|-------------------------------|

said that living with me was bringing her down,





G|------- ------- ------- -------|------- ------- ------- -------|

D|7-----------7---7--------------|7-----------7---7--------------|

A|-------------------------------|-------------------------------|

E|-------------------------------|-------------------------------|

yeah!





G|------- ------- ------- -------|------- ------- ------- -------|

D|7-----------7---7--------------|7-----------7---7--------------|

A|-------------------------------|-------------------------------|

E|-------------------------------|-------------------------------|

She would never be free when I was around!





G|------- ------- ------- -------|------- ------- ------- -------|

D|9-----------9---9--------------|-------------------------------|

A|-------------------------------|7-----------7---7--------------|

E|-------------------------------|-------------------------------|







G|------- ------- ------- -------|------- ------- ------- -------|

D|-------------------------------|-------------------------------|

A|9-----------9-------9-------7--|----------------12-------------|

E|----------------9--------------|10----------10------10------10-|

She's got a ticket to ride,





G|------- ------- ------- -------|------- ------- ------- -------|

D|-------------------------------|-------------------------------|

A|9-----------9-------9-------7--|10-----------------------------|

E|----------------9--------------|-------------------------------|

she's got a ticket to ride





G|------- ------- ------- -------|------- ------- ------- -------|

D|-------------------------------|----------------9---9----------|

A|9-----------9-------9----------|7-----------7-----------7------|

E|----------------9--------------|-------------------------------|

She's got a ticket to ride, but she don't care





G|------- ------- ------- -------|------- ------- ------- -------|

D|7-----------7------------------|7-----------7-----------7------|

A|-------------------------------|----------------7--------------|

E|----------------9-------9------|-------------------------------|

I



Bridge:

G|------- ------- ------- -------|------- ------- ------- -------|

D|----------------7---7---7------|----------------7---7---7------|

A|5-------5-------------------4--|5-------5-------------------4--|

E|-------------------------------|-------------------------------|

don't why she's so high, She

know riding ought

to

G|------- ------- ------- -------|------- ------- ------- -------|

D|----------------7---7---7------|----------------9---9-------9--|

A|5-------5-------------------5--|7-------7---------------7------|

E|-------------------------------|-------------------------------|

think She do right by me, Be-

twice, ought

to

G|------- ------- ------- -------|------- ------- ------- -------|

D|----------------7---7---7------|----------------7---7---7------|

A|5-------5-------------------4--|5-------5-------------------4--|

E|-------------------------------|-------------------------------|

fore gets to saying goodbye, She

she ought

to

G|------- ------- ------- -------|------- ------- ------- -------|

D|----------------7---7---7------|-------------------------------|

A|5-------5-------------------5--|7------------------------------|

E|-------------------------------|-------------------------------|

think She do right by me

twice, ought

to

G|------- ------- ------- -------|

D|-------------------------------|

A|-------------------------------|

E|-------------------------------|

I



Verse:

G|------- ------- ------- -------|------- ------- ------- -------|

D|7-----------7---7--------------|7-----------7---7--------------|

A|-------------------------------|-------------------------------|

E|-------------------------------|-------------------------------|

think I'm gonna be sad, I think it's today,





G|------- ------- ------- -------|------- ------- ------- -------|

D|7-----------7---7--------------|7-----------7---7--------------|

A|-------------------------------|-------------------------------|

E|-------------------------------|-------------------------------|

yeah! The





G|------- ------- ------- -------|------- ------- ------- -------|

D|7-----------7---7--------------|7-----------7---7--------------|

A|-------------------------------|-------------------------------|

E|-------------------------------|-------------------------------|

girl that's driving me mad is going away!





G|------- ------- ------- -------|------- ------- ------- -------|

D|-------------------------------|-------------------------------|

A|-------------------------------|7-----------7---7--------------|

E|7-----------7---7--------------|-------------------------------|







G|------- ------- ------- -------|------- ------- ------- -------|

D|-------------------------------|-------------------------------|

A|9-------9-------9-------7------|----------------12-------------|

E|------------9------------------|10----------10----------10-----|

She's got a ticket to ride,





G|------- ------- ------- -------|------- ------- ------- -------|

D|-------------------------------|-------------------------------|

A|9-----------9-----------9------|10-----------------------------|

E|----------------9--------------|-------------------------------|

she's got a ticket to ride





G|------- ------- ------- -------|------- ------- ------- -------|

D|-------------------------------|----------------9--------------|

A|9-----------9------------------|7-----------7-----------7------|

E|----------------9--------------|-------------------------------|

She's got a ticket to ride, but she don't care





G|------- ------- ------- -------|------- ------- ------- -------|

D|7-----------7---7--------------|7-----------7---7-------7------|

A|-------------------------------|-------------------------------|

E|-------------------------------|-------------------------------|

I



Bridge:

G|------- ------- ------- -------|------- ------- ------- -------|

D|----------------7-------7------|----------------7-------7------|

A|5-------5-------------------4--|5-------5-------------------4--|

E|-------------------------------|-------------------------------|

don't why she's so high, She

know riding ought

to

G|------- ------- ------- -------|------- ------- ------- -------|

D|----------------7---7---7------|----------------9---9----------|

A|5-------5-------------------5--|7-------7---------------7---6--|

E|-------------------------------|-------------------------------|

think She do right by me, Be-

twice, ought

to

G|------- ------- ------- -------|------- ------- ------- -------|

D|----------------7-------7------|----------------7-------7------|

A|5-------5-------------------4--|5-------5-------------------4--|

E|-------------------------------|-------------------------------|

fore gets to saying goodbye, She

she ought

to

G|------- ------- ------- -------|------- ------- ------- -------|

D|----------------7-------7------|-------------------------------|

A|5-------5-------------------5--|7------------------------------|

E|-------------------------------|-------------------------------|

think She do right by me

twice, ought

to

G|------- ------- ------- -------|

D|-------------------------------|

A|-------------------------------|

E|-------------------------------|

She



Verse:

G|------- ------- ------- -------|------- ------- ------- -------|

D|7-----------7---7--------------|7-----------7---7--------------|

A|-------------------------------|-------------------------------|

E|-------------------------------|-------------------------------|

said that living with me was bringing her down,





G|------- ------- ------- -------|------- ------- ------- -------|

D|7-----------7---7--------------|7-----------7---7--------------|

A|-------------------------------|-------------------------------|

E|-------------------------------|-------------------------------|

yeah!





G|------- ------- ------- -------|------- ------- ------- -------|

D|7-----------7---7--------------|7-----------7---7--------------|

A|-------------------------------|-------------------------------|

E|-------------------------------|-------------------------------|

She would never be free when I was around!





G|------- ------- ------- -------|------- ------- ------- -------|

D|-------------------------------|-------------------------------|

A|-------------------------------|7-----------7---7--------------|

E|7-----------7---7--------------|-------------------------------|







G|------- ------- ------- -------|------- ------- ------- -------|

D|-------------------------------|-------------------------------|

A|9-------------------9---7------|------------12----------12-----|

E|------------9------------------|10------------------10------10-|

She's got a ticket to ride,





G|------- ------- ------- -------|------- ------- ------- -------|

D|-------------------------------|-------------------------------|

A|9-------------------9---7------|10-----------------------------|

E|------------9------------------|-------------------------------|

she's got a ticket to ride





G|------- ------- ------- -------|------- ------- ------- -------|

D|-------------------------------|----------------9--------------|

A|9-------------------9-------7--|7-----------7-----------7------|

E|------------9-----------9------|-------------------------------|

She's got a ticket to ride, but she don't care





G|------- ------- ------- -------|------- ------- ------- -------|

D|7-----------7------------------|-------------------------------|

A|-------------------------------|7------------------------------|

E|----------------9-------9---9--|-------------------------------|

My baby don't



Outro:

G|------- ------- ------- -------|------- ------- ------- -------|

D|7---------------7--------------|7---------------7--------------|

A|--------7---------------7------|--------7---------------7------|

E|-------------------------------|-------------------------------|

care My baby don't





G|------- ------- ------- -------|------- ------- ------- -------|

D|7---------------7--------------|7---------------7--------------|

A|--------7---------------7------|--------7---------------7------|

E|-------------------------------|-------------------------------|

care My baby don't

Repeat and fade...



Please e-mail me for any corrections.Added by tabs-database.com and our distinguished partners
Get this song at amazon.com      Ebay     Ringtones Ringtones  


Learn to play: Songwriting, Piano, Harmonica, Guitar

Related Beatles Tabs

Only A Northern Song Bass tabs
Eightdaysaweek tabs
Across The Universe (Version 2) tabs
Cant Buy Me Love Solo tabs
All You Need Is Love Acoustic tabs
Dearprudence tabs
Octopuss Garden tabs
Obladioblada tabs
Blackbird tabs
Adayinalife tabs
Hello~c Goodbye tabs
The End tabs
Andiloveher tabs
Girl tabs
Run For Your Life tabs
Iamawalrus tabs
I Dig A Pony tabs
Two Of Us tabs
I Want To Tell You tabs
Cantbuymelove tabs


Guitar Tabs









All tabs are property and copyright of their owners. All tabs provided for educational purposes only. Privacy Policy, DMCA

Online converter - videoconverter.com