Beatles

Think For Yourself Bass Tabs



More from Beatles

Beatles Tabs
Beatles Chords
Beatles Bass
Beatles Lyrics

Think For Yourself

The Beatles

Written by George Harrison; released on "Rubber Soul" album.



A great song by George again. I didn't submit the fuzz bass part; sorry...



Intro:

G|------- ------- ------- -------|------- ------- ------- -------|

D|5-------5-------5-------5------|5-------5-------5----5-----5---|

A|-------------------------------|-------------------------------|

E|-------------------------------|-------------------------------|





Verse:

G|------- ------- ------- -------|------- ------- ------- -------|

D|7-----------7---7---7----------|-------------------------------|

A|----------------------------7--|5-----------5---7----5---------|

E|-------------------------------|---------------------------8---|

I've got a word or two





G|------- ------- ------- -------|------- ------- ------- -------|

D|-------------------------------|-------------------------------|

A|-------------------------------|----------------------------5--|

E|6-----------6---6---6----------|8-----------8---8---8----------|

to say a - bout the things that you





G|------- ------- ------- -------|------- ------- ------- -------|

D|5-----------5---5---5----------|5---5-------5---5---5-------6--|

A|----------------------------5--|-------------------------------|

E|-------------------------------|-------------------------------|

do





G|------- ------- ------- -------|------- ------- ------- -------|

D|7-----------7---7---7----------|-------------------------------|

A|----------------------------7--|5---5-------5--/7----5---------|

E|-------------------------------|---------------------------8---|

You're tel - ling all those lies





G|------- ------- ------- -------|------- ------- ------- -------|

D|-------------------------------|-------------------------------|

A|-------------------------------|----------------------------5--|

E|6-----------6---6---6-------7--|8-----------8---8---8----------|

a - bout the good things that we can





G|------- ------- ------- -------|------- ------- ------- -------|

D|5---5-------5---5---5-------6--|7---7-------7---7---7----------|

A|-------------------------------|----------------------------7--|

E|-------------------------------|-------------------------------|

have if we close our eyes



Refrain:

G|------- ------- ------- -------|------- ------- ------- -------|

D|----------------5---5----------|----------------5---5----------|

A|--------7---------------7------|--------7---------------7------|

E|8---8--------------------------|8---8--------------------------|

Do what you want to do, and





G|------- ------- ------- -------|------- ------- ------- -------|

D|5---5-----------5--------------|-------------------------------|

A|--------5---------------5------|5----8-----5----3----1---------|

E|-------------------------------|---------------------------3---|

go where go- ing to

you're



G|------- ------- ------- -------|------- ------- ------- -------|

D|-------------------------------|----------------------------4--|

A|-------------------------------|5-----------5---5---5----------|

E|6-----------6---6---6-------8--|-------------------------------|

Think for yourself, cause I won't be there with you





G|------- ------- ------- -------|------- ------- ------- -------|

D|5-----------5---5---5---5------|5-------5---5---5----5-----6---|

A|----------------------------5--|-------------------------------|

E|-------------------------------|-------------------------------|





Verse:

G|------- ------- ------- -------|------- ------- ------- -------|

D|7-----------7---7---7----------|-------------------------------|

A|----------------------------7--|5-----------5---7----5---------|

E|-------------------------------|---------------------------8---|

I left you far be - hind,





G|------- ------- ------- -------|------- ------- ------- -------|

D|-------------------------------|-------------------------------|

A|-------------------------------|----------------------------5--|

E|6-----------6---6---6-------8--|8-----------8---8---8----------|

the ru- ins of the life that you





G|------- ------- ------- -------|------- ------- ------- -------|

D|5-----------5---5---5----------|5---5-------5---5----5-----6---|

A|----------------------------5--|-------------------------------|

E|-------------------------------|-------------------------------|

had in mind





G|------- ------- ------- -------|------- ------- ------- -------|

D|7-----------7---7---7----------|-------------------------------|

A|------------------------7------|5-----------5---7----5---------|

E|-------------------------------|---------------------------8---|

And though you still can't see,





G|------- ------- ------- -------|------- ------- ------- -------|

D|-------------------------------|-------------------------------|

A|-------------------------------|----------------------------5--|

E|6-----------6---6---6-------7--|8-----------8---8---8----------|

I know your mind's made up, you're gon-





G|------- ------- ------- -------|------- ------- ------- -------|

D|5-----------5---5---5----------|7-----------7---7---7----------|

A|-------------------------------|-------------------------------|

E|-------------------------------|-------------------------------|

na cause more mi - se - ry



Refrain:

G|------- ------- ------- -------|------- ------- ------- -------|

D|----------------5---5----------|----------------5---5----------|

A|--------7---------------7------|--------7---------------7------|

E|8------------------------------|8---8--------------------------|

Do what you want to do, and





G|------- ------- ------- -------|------- ------- ------- -------|

D|5---5-----------5--------------|-------------------------------|

A|--------5---------------5------|5----8-----5----3----1---------|

E|-------------------------------|---------------------------3---|

go where go- ing to

you're



G|------- ------- ------- -------|------- ------- ------- -------|

D|-------------------------------|----------------------------4--|

A|-------------------------------|5-------5---5---5---5---5------|

E|6-------6---6---6---6---6-/-8--|-------------------------------|

Think for yourself, cause I won't be there with you





G|------- ------- ------- -------|------- ------- ------- -------|

D|5-------5-------5---5---5------|5-------5-------5----5-----6---|

A|-------------------------------|-------------------------------|

E|-------------------------------|-------------------------------|





Verse:

G|------- ------- ------- -------|------- ------- ------- -------|

D|7-----------7---7---7----------|-------------------------------|

A|------------------------7---7--|5-----------5---7----5---------|

E|-------------------------------|---------------------------8---|

Al- though your mind's o - paque,





G|------- ------- ------- -------|------- ------- ------- -------|

D|-------------------------------|-------------------------------|

A|-------------------------------|----------------------------5--|

E|6-----------6---6---6-------7--|8-----------8---8---8----------|

try thinking more if just for your





G|------- ------- ------- -------|------- ------- ------- -------|

D|5-----------5---5---5----------|5-----------5---5---5---5---6--|

A|-------------------------------|-------------------------------|

E|-------------------------------|-------------------------------|

own sake





G|------- ------- ------- -------|------- ------- ------- -------|

D|7-----------7---7---7----------|-------------------------------|

A|----------------------------7--|5-----------5---7----5---------|

E|-------------------------------|---------------------------8---|

The fu - ture still looks good,





G|------- ------- ------- -------|------- ------- ------- -------|

D|-------------------------------|-------------------------------|

A|-------------------------------|----------------------------5--|

E|6-----------6---6---6-------7--|8-----------8---8---8----------|

and you've got time to rec - ti - fy





G|------- ------- ------- -------|------- ------- ------- -------|

D|5-----------5---5---5----------|7-----------7---7---7----------|

A|-------------------------------|-------------------------------|

E|-------------------------------|-------------------------------|

all the things that you should



Refrain:

G|------- ------- ------- -------|------- ------- ------- -------|

D|----------------5---5----------|----------------5---5----------|

A|--------7---------------7------|--------7---------------7---7--|

E|8---8--------------------------|8---8--------------------------|

Do what you want to do, and





G|------- ------- ------- -------|------- ------- ------- -------|

D|5---5-----------5---5----------|-------------------------------|

A|--------5---------------5------|5----8-----5----3----1---------|

E|-------------------------------|---------------------------3---|

go where go- ing to

you're



G|------- ------- ------- -------|------- ------- ------- -------|

D|-------------------------------|----------------------------4--|

A|-------------------------------|5-------5-------5---5---5------|

E|6-------6-------6---6---6---8--|-------------------------------|

Think for yourself, cause I won't be there with you





G|------- ------- ------- -------|------- ------- ------- -------|

D|5-----------5---5---5----------|5-------5-------5---5---5------|

A|----------------------------5--|-------------------------------|

E|-------------------------------|-------------------------------|





Refrain:

G|------- ------- ------- -------|------- ------- ------- -------|

D|----------------5--------------|----------------5---5----------|

A|--------7---------------7------|--------7---------------7---5--|

E|8------------------------------|8------------------------------|

Do what you want to do, and





G|------- ------- ------- -------|------- ------- ------- -------|

D|5-------5----------------------|--------3----------------------|

A|----------------5---5----------|5-----------5---3---1----------|

E|-------------------------------|------------------------3------|

go where go- ing to

you're



G|------- ------- ------- -------|------- ------- ------- -------|

D|-------------------------------|----------------------------4--|

A|-------------------------------|5-------5-------5---5---5------|

E|6-------6-------6---6---6---8--|-------------------------------|

Think for yourself, cause I won't be there with you





G|------- ------- ------- -------|------- ------- ------- -------|

D|----------------------------5--|5-------5-------5---5---5------|

A|3-------3-------3---3---3------|-------------------------------|

E|-------------------------------|-------------------------------|





Outro:

G|------- ------- ------- -------|------- ------- ------- -------|

D|-------------------------------|-------------------------------|

A|-------------------------------|5-------5-------5---5---5------|

E|6-------6-------6---6---6---8--|-------------------------------|

Think for yourself, cause I won't be there with you





G|------- ------- ------- -------|------- ------- ------- -------|

D|-------------------------------|5---5---5---5------------------|

A|-------------------------------|-------------------------------|

E|8-------8-------8---8---8------|-------------------------------|



Please e-mail me for any corrections.Added by tabs-database.com and our distinguished partners
Get this song at amazon.com      Ebay     Ringtones Ringtones  


Learn to play: Songwriting, Piano, Harmonica, Guitar

Related Beatles Tabs

In My Life tabs
Tell Me Why tabs
Ive Got A Feeling tabs
Andiloveher tabs
Happiness Is tabs
Little Child Bass tabs
I Need You Bass tabs
Another Girl tabs
Twoofus tabs
Inmylife tabs
Thatsalrightmama tabs
Getting Better tabs
Why Dont We Do It In The Road Bass tabs
I Want You tabs
Every Little Thing tabs
I Want To Hold Your Hand tabs
Hey Jude tabs
Birthday Bass tabs
A Hard Days Night Solo tabs
I Will tabs


Guitar Tabs









All tabs are property and copyright of their owners. All tabs provided for educational purposes only. Privacy Policy, DMCA

Online converter - videoconverter.com