Beatles

Theres A Place Bass Tabs



More from Beatles

Beatles Tabs
Beatles Chords
Beatles Bass
Beatles Lyrics

There's A Place

The Beatles

Written by John Lennon and Paul McCartney; released on "Please Please Me"

album



This is my favourite song on their first album "Please Please Me"; I

especially like the lyrics. :-)



Intro:

G|------- ------- ------- -------|------- ------- ------- -------|

D|-------------------------------|-------------------------------|

A|-------------------------------|-------------------------------|

E|-------------------------------|------------------------7------|







G|------- ------- ------- -------|------- ------- ------- -------|

D|-------------------------------|7-------7---7---7-----------7--|

A|7-------7---7---7-------7---7--|-------------------------------|

E|-------------------------------|-------------------------------|







G|------- ------- ------- -------|------- ------- ------- -------|

D|-------------------------------|7------------------------------|

A|7-------7---7---7-------7---7--|-------------------------------|

E|-------------------------------|-------------------------------|

There





G|------- ------- ------- -------|

D|-------------------------------|

A|-------------------------------|

E|-------------------------------|

is a



Verse:

G|------- ------- ------- -------|------- ------- ------- -------|

D|-------------------------------|7-----------7---7--------------|

A|7-----------7---7--------------|-------------------------------|

E|-------------------------------|-------------------------------|

place, where I can





G|------- ------- ------- -------|------- ------- ------- -------|

D|-------------------------------|7-----------7---7--------------|

A|7-----------7---7--------------|-------------------------------|

E|-------------------------------|-------------------------------|

go when I feel





G|------- ------- ------- -------|------- ------- ------- -------|

D|-------------------------------|-------------------------------|

A|7-----------7---7--------------|-------------------------------|

E|-------------------------------|9-----------9---9--------------|

low, when I feel





G|------- ------- ------- -------|------- ------- ------- -------|

D|-------------------------------|----------------6----7-----9---|

A|-------------------------------|-------------------------------|

E|7-----------7---7--------------|7------------------------------|

blue And it's my





G|------- ------- ------- -------|------- ------- ------- -------|

D|6-----------6---6--------------|7-----------7---7--------------|

A|-------------------------------|-------------------------------|

E|-------------------------------|-------------------------------|

mind, and there's no





G|------- ------- ------- -------|------- ------- ------- -------|

D|-------------------------------|7-----------7------------------|

A|7-----------7---7--------------|----------------9-----------9--|

E|-------------------------------|-------------------------------|

time when I'm a-





G|------- ------- ------- -------|------- ------- ------- -------|

D|-------------------------------|-------------------------------|

A|-------------------------------|-------------------------------|

E|9-----------9---9-----------9--|9------------------------------|

lone I





G|------- ------- ------- -------|

D|-------------------------------|

A|-------------------------------|

E|-------------------------------|

think of



Verse:

G|------- ------- ------- -------|------- ------- ------- -------|

D|-------------------------------|7-----------7---7--------------|

A|7-----------7---7--------------|-------------------------------|

E|-------------------------------|-------------------------------|

you, and things you





G|------- ------- ------- -------|------- ------- ------- -------|

D|-------------------------------|7-----------7---7--------------|

A|7-----------7---7--------------|-------------------------------|

E|-------------------------------|-------------------------------|

do, go round my





G|------- ------- ------- -------|------- ------- ------- -------|

D|-------------------------------|-------------------------------|

A|7-----------7---7--------------|-------------------------------|

E|-------------------------------|9-----------9---9--------------|

head the things you





G|------- ------- ------- -------|------- ------- ------- -------|

D|-------------------------------|-------------------------------|

A|-------------------------------|-------------------------------|

E|7-----------7---7--------------|7-----------7---7--------------|

said Like "I





G|------- ------- ------- -------|------- ------- ------- -------|

D|7-----------7---7--------------|7-----------7---7--------------|

A|-------------------------------|-------------------------------|

E|-------------------------------|-------------------------------|

love on - ly

Aaaaaaaaaaaaaaaaaaaaaaaaaaaaaaaaaaaaaaaaaaaaaaaaaaaaaaaaaaaaaaa



G|------- ------- ------- -------|------- ------- ------- -------|

D|9-----------9---9--------------|9------------------------------|

A|-------------------------------|--------6-------9-------6------|

E|-------------------------------|-------------------------------|

you!"

aaaaaaaaaaaaaaaaaaaaaaaaaaaaaaaaaaaaaaaaaaaaaaaaaaaaaaaaaaaaaaa

Bridge:

G|------- ------- ------- -------|------- ------- ------- -------|

D|-------------------------------|-------------------------------|

A|-------------------------------|9-----------9---9--------------|

E|9-----------9---9--------------|------------------------7------|

In my mind there's no sorrow,





G|------- ------- ------- -------|------- ------- ------- -------|

D|-------------------------------|6-----------6---6--------------|

A|7-----------7-----------7------|-------------------------------|

E|----------------7--------------|-------------------------------|

don't know that so?

you it's



G|------- ------- ------- -------|------- ------- ------- -------|

D|-------------------------------|-------------------------------|

A|-------------------------------|9-----------9---9--------------|

E|9-----------9---9--------------|------------------------7------|

There'll sad to - morrow

be no



G|------- ------- ------- -------|------- ------- ------- -------|

D|-------------------------------|6-----------6---6--------------|

A|7-----------7-----------7------|-------------------------------|

E|----------------7--------------|-------------------------------|

don't know that so?

you it's



G|------- ------- ------- -------|------- ------- ------- -------|

D|-------------------------------|-------------------------------|

A|-------------------------------|-------------------------------|

E|9------------------------------|-------------------------------|

There is a



Verse:

G|------- ------- ------- -------|------- ------- ------- -------|

D|-------------------------------|7-----------7---7--------------|

A|7-----------7---7--------------|-------------------------------|

E|-------------------------------|-------------------------------|

place, where I can





G|------- ------- ------- -------|------- ------- ------- -------|

D|-------------------------------|7-----------7---7--------------|

A|7-----------7---7--------------|-------------------------------|

E|-------------------------------|-------------------------------|

go when I feel





G|------- ------- ------- -------|------- ------- ------- -------|

D|-------------------------------|-------------------------------|

A|7-----------7---7--------------|-------------------------------|

E|-------------------------------|9-----------9---9--------------|

low, when I feel





G|------- ------- ------- -------|------- ------- ------- -------|

D|-------------------------------|----------------6----7-----9---|

A|-------------------------------|-------------------------------|

E|7-----------7---7--------------|7------------------------------|

blue And it's my





G|------- ------- ------- -------|------- ------- ------- -------|

D|6-----------6---6--------------|7-----------7---7--------------|

A|-------------------------------|-------------------------------|

E|-------------------------------|-------------------------------|

mind, and there's no





G|------- ------- ------- -------|------- ------- ------- -------|

D|-------------------------------|7-----------7------------------|

A|7-----------7---7--------------|----------------9-----------9--|

E|-------------------------------|-------------------------------|

time when I'm a-





G|------- ------- ------- -------|------- ------- ------- -------|

D|-------------------------------|-------------------------------|

A|-------------------------------|-------------------------------|

E|9-----------9---9-----------9--|9------------------------------|

lone There's a



Outro:

G|------- ------- ------- -------|------- ------- ------- -------|

D|-------------------------------|7-----------7---7--------------|

A|7-----------7---7--------------|-------------------------------|

E|-------------------------------|-------------------------------|

place There's a...

repeat and fade...



Please e-mail me for any corrections.Added by tabs-database.com and our distinguished partners
Get this song at amazon.com      Ebay     Ringtones Ringtones  


Learn to play: Songwriting, Piano, Harmonica, Guitar

Related Beatles Tabs

Misery tabs
Cantbuymelove tabs
All You Need Is Love Bass tabs
I Wanna Hold Your Hand tabs
Ladymadonna tabs
Dig It tabs
Something tabs
The Counting Story Of Bungalow Bill tabs
Anna tabs
Do You Want To Know A Secret~q tabs
Dizzy Miss Lizzy Bass tabs
Getback tabs
Acrosstheuniverse tabs
Nowhere Man Bass tabs
Crybabycry tabs
Everybodys Got Something To Hide Except For Me And My Monkey tabs
Allyouneedislove tabs
Obladioblada tabs
Hey Jude tabs
Komm Gib Mir Deine Hand tabs


Guitar Tabs









All tabs are property and copyright of their owners. All tabs provided for educational purposes only. Privacy Policy, DMCA