Beatles

Tell Me What You See Bass Tabs



More from Beatles

Beatles Tabs
Beatles Chords
Beatles Bass
Beatles Lyrics

Tell Me What You See

The Beatles

Written by John Lennon and Paul McCartney; released on "Help!" album



A simple song, just 3 chords, but great lyrics :-)



Intro:

G|------- ------- ------- -------|------- ------- ------- -------|

D|5-----------5------------------|5-----------5------------------|

A|----------------5--------------|----------------5--------------|

E|-------------------------------|-------------------------------|





Verse:

G|------- ------- ------- -------|------- ------- ------- -------|

D|5-----------5------------------|----------------5-------5------|

A|----------------3-------3------|5-------5----------------------|

E|-------------------------------|-------------------------------|

If you let me take your heart,





G|------- ------- ------- -------|------- ------- ------- -------|

D|5-------5----------------------|5-------5----------------------|

A|----------------3-------3------|----------------5-------5------|

E|-------------------------------|-------------------------------|

I will prove to you





G|------- ------- ------- -------|------- ------- ------- -------|

D|5-------5----------------------|----------------5-------5------|

A|----------------3-------3------|5-------5----------------------|

E|-------------------------------|-------------------------------|

We will ne - ver be a - part,





G|------- ------- ------- -------|------- ------- ------- -------|

D|-------------------------------|5-------5---------------5------|

A|3-------3-------5-------5------|----------------5-----------5--|

E|-------------------------------|-------------------------------|

if I'm part of you





G|------- ------- ------- -------|------- ------- ------- -------|

D|-------------------------------|5-----------5------------------|

A|3-----------3---------------3--|----------------5--------------|

E|----------------3--------------|-------------------------------|

O - pen up your eyes now,





G|------- ------- ------- -------|------- ------- ------- -------|

D|-------------------------------|5-----------5------------------|

A|3-----------3------------------|----------------5--------------|

E|----------------3--------------|-------------------------------|

tell me what you see,





G|------- ------- ------- -------|------- ------- ------- -------|

D|-------------------------------|5-----------5------------------|

A|3-----------3------------------|----------------5--------------|

E|----------------3--------------|-------------------------------|

It is no sur - prise now:





G|------- ------- ------- -------|------- ------- ------- -------|

D|-------------------------------|5-----------5------------------|

A|3-----------3---5-----------5--|----------------5--------------|

E|-------------------------------|-------------------------------|

what you see is me



Verse:

G|------- ------- ------- -------|------- ------- ------- -------|

D|5-------5----------------------|----------------5-------5------|

A|----------------3-------3------|5-------5----------------------|

E|-------------------------------|-------------------------------|

Big and black the clouds may be,





G|------- ------- ------- -------|------- ------- ------- -------|

D|5-------5----------------------|5-------5----------------------|

A|----------------3-------3------|----------------5-------5------|

E|-------------------------------|-------------------------------|

time will pass a - way





G|------- ------- ------- -------|------- ------- ------- -------|

D|5-------5----------------------|----------------5-------5------|

A|----------------3-------3------|5-------5----------------------|

E|-------------------------------|-------------------------------|

If you put your trust in me,





G|------- ------- ------- -------|------- ------- ------- -------|

D|-------------------------------|5-------5----------------------|

A|3-------3-------5-------5------|----------------5-------5------|

E|-------------------------------|-------------------------------|

I may bright your day





G|------- ------- ------- -------|------- ------- ------- -------|

D|-------------------------------|5-----------5------------------|

A|3-----------3------------------|----------------5--------------|

E|----------------3--------------|-------------------------------|

Look in to these eyes now,





G|------- ------- ------- -------|------- ------- ------- -------|

D|-------------------------------|5-----------5------------------|

A|3-----------3------------------|----------------5--------------|

E|----------------3--------------|-------------------------------|

tell me what you see,





G|------- ------- ------- -------|------- ------- ------- -------|

D|-------------------------------|5-----------5------------------|

A|3-----------3------------------|----------------5--------------|

E|----------------3--------------|-------------------------------|

Don't you re - a - lize now:





G|------- ------- ------- -------|------- ------- ------- -------|

D|-------------------------------|5-----------5------------------|

A|3-----------3---5-----------5--|----------------5--------------|

E|-------------------------------|-------------------------------|

what you see is me



Bridge:

G|------- ------- ------- -------|------- ------- ------- -------|

D|5-----------5---5-------5------|5-----------5---5-------5------|

A|-------------------------------|-------------------------------|

E|-------------------------------|-------------------------------|

Tell me what you





G|------- ------- ------- -------|------- ------- ------- -------|

D|-------------------------------|-------------------------------|

A|3------------------------------|-------------------------------|

E|-------------------------------|-------------------------------|

see!





G|------- ------- ------- -------|------- ------- ------- -------|

D|5-----------5---5--------------|-------------------------------|

A|-------------------------------|5-----------5---5--------------|

E|-------------------------------|-------------------------------|







G|------- ------- ------- -------|------- ------- ------- -------|

D|5-----------5---5--------------|5-----------5---5--------------|

A|-------------------------------|-------------------------------|

E|-------------------------------|-------------------------------|





Verse:

G|------- ------- ------- -------|------- ------- ------- -------|

D|5-------5----------------------|----------------5-------5------|

A|----------------3-------3------|5-------5----------------------|

E|-------------------------------|-------------------------------|

Listen to me one more time,





G|------- ------- ------- -------|------- ------- ------- -------|

D|5-------5----------------------|5-------5----------------------|

A|----------------3-------3------|----------------5-------5------|

E|-------------------------------|-------------------------------|

how can I get through?





G|------- ------- ------- -------|------- ------- ------- -------|

D|5-------5----------------------|----------------5-------5------|

A|----------------3-------3------|5-------5----------------------|

E|-------------------------------|-------------------------------|

Can't you try to see that I'm





G|------- ------- ------- -------|------- ------- ------- -------|

D|-------------------------------|5-------5-------------------5--|

A|3-------3-------5-------5------|----------------5-------5------|

E|-------------------------------|-------------------------------|

trying to get to you?





G|------- ------- ------- -------|------- ------- ------- -------|

D|-------------------------------|5-----------5---5--------------|

A|3-----------3---3--------------|-------------------------------|

E|-------------------------------|-------------------------------|

O - pen up your eyes now,





G|------- ------- ------- -------|------- ------- ------- -------|

D|-------------------------------|5-----------5------------------|

A|3-----------3------------------|----------------5--------------|

E|----------------3--------------|-------------------------------|

tell me what you see,





G|------- ------- ------- -------|------- ------- ------- -------|

D|-------------------------------|5-----------5---5--------------|

A|3-----------3------------------|-------------------------------|

E|----------------3--------------|-------------------------------|

It is no sur - prise now:





G|------- ------- ------- -------|------- ------- ------- -------|

D|-------------------------------|5-----------5------------------|

A|3-----------3---5--------------|----------------5--------------|

E|-------------------------------|-------------------------------|

what you see is me



Bridge:

G|------- ------- ------- -------|------- ------- ------- -------|

D|5-----------5---5-------5------|5-----------5---5-------5------|

A|-------------------------------|-------------------------------|

E|-------------------------------|-------------------------------|

Tell me what you





G|------- ------- ------- -------|------- ------- ------- -------|

D|-------------------------------|-------------------------------|

A|3------------------------------|-------------------------------|

E|-------------------------------|-------------------------------|

see!





G|------- ------- ------- -------|------- ------- ------- -------|

D|5-----------5---5--------------|-------------------------------|

A|-------------------------------|5-----------5---5--------------|

E|-------------------------------|-------------------------------|







G|------- ------- ------- -------|------- ------- ------- -------|

D|5-----------5------------------|5-----------5------------------|

A|----------------5--------------|----------------5--------------|

E|-------------------------------|-------------------------------|





Verse:

G|------- ------- ------- -------|------- ------- ------- -------|

D|5-----------5------------------|----------------5-------5------|

A|----------------3-------3------|5-------5----------------------|

E|-------------------------------|-------------------------------|

Listen to me one more time,





G|------- ------- ------- -------|------- ------- ------- -------|

D|5-------5----------------------|5-------5----------------------|

A|----------------3-------3------|----------------5-------5------|

E|-------------------------------|-------------------------------|

how can I get through?





G|------- ------- ------- -------|------- ------- ------- -------|

D|5-------5----------------------|----------------5-------5------|

A|----------------3-------3------|5-------5----------------------|

E|-------------------------------|-------------------------------|

Can't you try to see that I'm





G|------- ------- ------- -------|------- ------- ------- -------|

D|-------------------------------|5-------5-------------------5--|

A|3-------3-------5-------5------|----------------5-------5------|

E|-------------------------------|-------------------------------|

trying to get to you?





G|------- ------- ------- -------|------- ------- ------- -------|

D|-------------------------------|5-----------5---5--------------|

A|3-----------3---3--------------|-------------------------------|

E|-------------------------------|-------------------------------|

O - pen up your eyes now,





G|------- ------- ------- -------|------- ------- ------- -------|

D|-------------------------------|5-----------5---5--------------|

A|3-----------3---3--------------|-------------------------------|

E|-------------------------------|-------------------------------|

tell me what you see,





G|------- ------- ------- -------|------- ------- ------- -------|

D|-------------------------------|5-----------5---5--------------|

A|3-----------3---3--------------|-------------------------------|

E|-------------------------------|-------------------------------|

It is no sur - prise now:





G|------- ------- ------- -------|------- ------- ------- -------|

D|-------------------------------|5-----------5---5--------------|

A|3-----------3---5-----------5--|-------------------------------|

E|-------------------------------|-------------------------------|

what you see is me



Outro:

G|------- ------- ------- -------|------- ------- ------- -------|

D|5-----------5---5-------5------|5-----------5---5-------5------|

A|-------------------------------|-------------------------------|

E|-------------------------------|-------------------------------|

hm hm hm hm





G|------- ------- ------- -------|------- ------- ------- -------|

D|-------------------------------|-------------------------------|

A|3------------------------------|-------------------------------|

E|-------------------------------|-------------------------------|

hm





G|------- ------- ------- -------|------- ------- ------- -------|

D|-------------------------------|-------------------------------|

A|-------------------------------|-------------------------------|

E|-------------------------------|-------------------------------|



Please e-mail me for any corrections, or write a comment.Added by tabs-database.com and our distinguished partners
Get this song at amazon.com      Ebay     Ringtones Ringtones  


Learn to play: Songwriting, Piano, Harmonica, Guitar

Related Beatles Tabs

And Your Bird Can Sing (Version 2) tabs
The Night Before tabs
Day Tripper tabs
Bigger Than The Beatles tabs
Iamawalrus tabs
Work It Out tabs
Lennon-imagine tabs
Glass Onion tabs
Clarabella tabs
Friends tabs
I Me Mine tabs
Nobodyiknow tabs
I Wana Hold Your Hand tabs
Fool On The Hill tabs
Boys tabs
Long Long Long tabs
Help~e tabs
Cry For A Shadow tabs
You Never Give Me Your Money tabs
Rocket Man tabs


Guitar Tabs









All tabs are property and copyright of their owners. All tabs provided for educational purposes only. Privacy Policy, DMCA

Online converter - videoconverter.com