Beatles

Shes a woman Bass Tabs



More from Beatles

Beatles Tabs
Beatles Chords
Beatles Bass
Beatles Lyrics

Date: Wed, 19 Mar 2003 22:15:49 +0100 (CET)
From: Jan Björklund 
Subject: b/beatles/shes_a_woman.btab

Basstab by Jan Bjorklund, Finland; 
jani_bjorklund@yahoo.se 
You are welcome to request for basstabs!
Bienvenidos a pedirme transcripciones para el bajo!
Be shure to use a monospaced font!

TablEdited by Jan Bjorklund for Jose
Tuning : E A D G 	Time Signature: 4/4

 |       |       |       |        |       |       |       |        
|--------------------------------|--------------------------------|
|--------------------------------|--------------------------------|
|--------------------------------|----------------7-------5-------|
|------------------------12/-6---|5-------5-----------------------|

 |       |       |       |        |       |       |       |        
|--------------------------------|--------------------------------|
|--------------------------------|--------------------------------|
|----------------7-------5-------|----------------7-------5-------|
|5-------5-----------------------|5-------5-----------------------|

 |       |       |       |        My love...      |       |        
|--------------------------------|--------------------------------|
|--------------------------------|--------------------------------|
|----------------7-------5-------|----------------7-------5-------|
|5-------5-----------------------|5-------5-----------------------|

 |       |       |       |        |       |       |       |        
|7-------7-----------------------|--------------------------------|
|----------------7---------------|--------------------------------|
|--------------------------------|----------------7-------5-------|
|--------------------------------|5-------5-----------------------|

 |       |       |       |        I know...       |       |        
|--------------------------------|--------------------------------|
|--------------------------------|------------------------7-------|
|----------------7-------5-------|----------------7---------------|
|5-------5-----------------------|5-------------------------------|

 |       |       |       |        |       |       |       |        
|7-------7-----------------------|--------------------------------|
|----------------7-------7-------|--------------------------------|
|--------------------------------|----------------7-------5-------|
|--------------------------------|5-------------------------------|

 |       |       |       |        |       |       |       |        
|--------------------------------|7-------7-----------------------|
|--------------------------------|----------------7-------7-------|
|----------------7-------5-------|--------------------------------|
|5-------------------------------|--------------------------------|

 |       |       |       |        |       |       |       |        
|7-------7-----------------------|7-------7-----------------------|
|----------------7-------7-------|----------------7-------7-------|
|--------------------------------|--------------------------------|
|--------------------------------|--------------------------------|

 |       |       |       |        |       |       |       |        
|7-------7---------------7-------|--------------------------------|
|----------------7---------------|------------------------7-------|
|--------------------------------|----------------7---------------|
|--------------------------------|5-------5-----------------------|

 |       |       |       |        |       |       |       |        
|7-------7-----------------------|--------------------------------|
|----------------7---------------|------------------------5h--7---|
|--------------------------------|----------------7---------------|
|--------------------------------|5-------------------------------|

 |       |       |       |        |   Turn|me on...       |        
|--------------------------------|----------------4---------------|
|------------------------5h--7---|--------------------------------|
|----------------5---------------|7-------------------------------|
|5-------------------------------|--------------------------------|

 |       |       |       |        |       |       |       |        
|----------------4---------------|--------------------------------|
|--------------------------------|----------------7-------7-------|
|7-------7---------------7-------|5-------5-----------------------|
|--------------------------------|--------------------------------|

 |       |       |       |        |       |       |       |        
|------------------------7-------|--------------------------------|
|----------------7---------------|--------------------------------|
|5-------5-----------------------|--------------------------------|
|--------------------------------|5---------------5---------------|

 |       |       |       |        |       |       |       |        
|--------------------------------|--------------------------------|
|----------------7---------------|------------------------5h--7---|
|5-------------------------------|----------------7---------------|
|--------------------------------|5-------5-----------------------|

 |       |       |       |        She don't give..|       |        
|--------------------------------|--------------------------------|
|7-------------------------------|--------------------------------|
|--------7-------7-------7-------|--------------------------------|
|--------------------------------|5---------------5---------------|

 |       |       |       |        |       |       |       |        
|--------------------------------|--------------------------------|
|----------------7---------------|------------------------5-------|
|5-------7---------------7-------|----------------7---------------|
|--------------------------------|5-------------------------------|

 |       |       |       |        |       |       |       |        
|--------------------------------|--------------------------------|
|--------------------------------|------------------------7-------|
|----------------7-------5-------|----------------7---------------|
|5-------5-----------------------|5-------5-----------------------|

 |       |       |       |        |       |       |       |        
|--------------------------------|--------------------------------|
|----------------7---------------|------------------------5-------|
|5-----------5-------------------|----------------7---------------|
|--------------------------------|5-------------------------------|

 |       |       |       |        She is happy... |       |        
|--------------------------------|--------------------------------|
|------------------------7-------|----------------7-------7-------|
|----------------7---------------|5-------------------------------|
|5-------------------------------|--------------------------------|

 |       |       |       |        |       |       |       |        
|------------------------5-------|--------------------------------|
|----------------7---------------|----------------7-------7-------|
|5-------5-----------------------|5-------5-----------------------|
|--------------------------------|--------------------------------|

 |       |       |       |        She don't give..|       |        
|------------------------7-------|--------------------------------|
|----------------7---------------|--------------------------------|
|5-------5-----------------------|--------------------------------|
|--------------------------------|5---------------5---------------|

 |       |       |       |        |       |       |       |        
|--------------------------------|--------------------------------|
|--------------------------------|------------------------5-------|
|5-------------------------------|----------------7---------------|
|----------------5---------------|5-------------------------------|

 |       |       |       |     She|will never..   |       |        
|--------------------------------|----------------4-------4-------|
|------------------------7-------|--------------------------------|
|----------------7---------------|7-------7-----------------------|
|5-------------------------------|--------------------------------|

 |       |       |       |        |       |       |       |        
|----------------4---------------|--------------------------------|
|--------------------------------|----------------7---------------|
|7-----------------------7-------|5-------5-----------------------|
|--------------------------------|--------------------------------|

 |       |       |       |        |       |       |       |        
|--------------------------------|--------------------------------|
|--------------------------------|--------------------------------|
|5-------5---------------5-------|--------------------------------|
|----------------5---------------|5---------------5---------------|

 |       |       |       |        |       |       |       |        
|--------------------------------|--------------------------------|
|--------------------------------|------------------------5-------|
|5-------7-----------------------|----------------7---------------|
|----------------5---------------|5-------5-----------------------|

 |       |       |       |        She's a woman...|       |        
|--------------------------------|--------------------------------|
|------------------------7-------|----------------6---------------|
|----------------7---------------|4-------4---------------4-------|
|5-------5-----------------------|--------------------------------|

 |       |       |       |        |       |       |       |        
|--------------------------------|--------------------------------|
|4-----------------------4-------|----------------4---------------|
|----------------4---------------|4-------4---------------4-------|
|--------------------------------|--------------------------------|

 |       |       |       |        My love...      |       |        
|--------------------------------|--------------------------------|
|--------------------------------|--------------------------------|
|5-------5-------7-------7-------|--------------------------------|
|--------------------------------|5---------------5---------------|

 |       |       |       |        |       |       |       |        
|--------------------------------|--------------------------------|
|--------------------------------|------------------------7-------|
|5-------------------------------|----------------7---------------|
|----------------5---------------|5-------------------------------|

 |       |       |       |        |       |       |       |        
|--------------------------------|--------------------------------|
|--------------------------------|------------------------7-------|
|5-------7-----------------------|----------------7---------------|
|----------------5---------------|5-------5-----------------------|

 |       |       |       |        |       |       |       |        
|--------------------------------|--------------------------------|
|----------------7---------------|------------------------5-------|
|5-------------------------------|----------------7---------------|
|--------------------------------|5-------------------------------|

 |       |       |       |        |       |       |       |        
|--------------------------------|------------------------5-------|
|------------------------7-------|----------------7---------------|
|----------------7---------------|5-------------------------------|
|5-------------------------------|--------------------------------|

 |       |       |       |        |       |       |       |        
|------------------------5-------|------------------------5-------|
|----------------7---------------|----------------7---------------|
|5-------5-----------------------|5-------5-----------------------|
|--------------------------------|--------------------------------|

 |       |       |       |        My love...      |       |        
|------------------------7-------|--------------------------------|
|----------------7---------------|------------------------5-------|
|5-------5-----------------------|--------------------------------|
|--------------------------------|5-------------------------------|

 |       |       |       |        |       |       |       |        
|--------------------------------|--------------------------------|
|----------------7---------------|------------------------5-------|
|5-------5-----------------------|----------------7---------------|
|--------------------------------|5-------------------------------|

 |       |       |       |        Turn me on...   |       |        
|--------------------------------|----------------4-------4-------|
|------------------------7-------|--------------------------------|
|----------------7---------------|7-------7-----------------------|
|5-----------5-------------------|--------------------------------|

 |       |       |       |        |       |       |       |        
|----------------4---------------|--------------------------------|
|--------------------------------|----------------7---------------|
|7-------7---------------7-------|5-------5-----------------------|
|--------------------------------|--------------------------------|

 |       |       |       |        |       |       |       |        
|----------------------7---------|--------------------------------|
|----------------7---------------|--------------------------------|
|5-------5-----------------------|--------------------------------|
|--------------------------------|5---------------5---------------|

 |       |       |       |        |       |       |       |        
|--------------------------------|--------------------------------|
|----------------7---------------|--------------------------------|
|5-------------------------------|--------------------------------|
|--------------------------------|5---------------5---------------|

 |       |       |       |        S O L O |       |       |        
|--------------------------------|--------------------------------|
|--------------------------------|--------------------------------|
|7-------7-------7-------7-------|----------------5-------7-------|
|--------------------------------|5-------5-----------------------|

 |       |       |       |        |       |       |       |        
|--------------------------------|--------------------------------|
|--------7-----------------------|7-------------------------------|
|------------------------7-------|----------------5-------7-------|
|--------------------------------|--------------------------------|

 |       |       |       |        |       |       |       |        
|--------------------------------|------------------------5-------|
|7---------------7---------------|----------------7---------------|
|------------------------5-------|5-------5-----------------------|
|--------------------------------|--------------------------------|

 |       |       |       |        |       |       |       |        
|------------------------7h--9---|--------------------------------|
|----------------7---------------|------------------------5-------|
|5-------5-----------------------|----------------7---------------|
|--------------------------------|5-------5-----------------------|

 |       |       |       |        |       |       |       |        
|--------------------------------|----------------4---------------|
|------------------------7-------|--------------------------------|
|----------------7---------------|7-------7---------------7-------|
|5-------5-----------------------|--------------------------------|

 |       |       |       |        |       |       |       |        
|--------------------------------|--------------------------------|
|--------3-------5-------5-------|------------------------5-------|
|5-------------------------------|----------------7---------------|
|--------------------------------|5-------------------------------|

 |       |       |       |        She's a woman...|       |        
|--------------------------------|6-------6-----------------------|
|--------------------------------|----------------6---------------|
|----------------7---------------|--------------------------------|
|5-------5-----------------------|--------------------------------|

 |       |       |       |        |       |       |       |        
|--------------------------------|------------------------6-------|
|4-------4-----------------------|----------------6---------------|
|----------------4---------------|4-------------------------------|
|--------------------------------|--------------------------------|

 |       |       |       |        My love...      |       |        
|7-------7-------9-------9-------|--------------------------------|
|--------------------------------|--------------------------------|
|--------------------------------|--------------------------------|
|--------------------------------|5---------------5---------------|

 |       |       |       |        |       |       |       |        
|--------------------------------|--------------------------------|
|----------------7---------------|------------------------5-------|
|5-------5-----------------------|----------------7---------------|
|--------------------------------|5-------------------------------|

 |       |       |       |        |       |       |       |        
|--------------------------------|--------------------------------|
|------------------------5-------|------------------------7-------|
|----------------7---------------|----------------7---------------|
|5-------5-----------------------|5-------5-----------------------|

 |       |       |       |        |       |       |       |        
|--------------------------------|--------------------------------|
|----------------7---------------|------------------------5-------|
|5-------5-----------------------|----------------7---------------|
|--------------------------------|5-------------------------------|

 |       |       |       |        |       |       |       |        
|--------------------------------|------------------------5-------|
|------------------------7-------|----------------7---------------|
|----------------7---------------|5-------5-----------------------|
|5-------------------------------|--------------------------------|

 |       |       |       |        |       |       |       |        
|------------------------5-------|------------------------5-------|
|----------------7---------------|----------------7---------------|
|5-------5-----------------------|5-------5-----------------------|
|--------------------------------|--------------------------------|

 |       |       |       |        My love...      |       |        
|--------------------------------|--------------------------------|
|----------------7---------------|------------------------7-------|
|5-------5---------------5-------|----------------7---------------|
|--------------------------------|5-------------------------------|

 |       |       |       |        |       |       |       |        
|--------------------------------|--------------------------------|
|--------------------------------|------------------------5-------|
|5-------------------------------|----------------7---------------|
|----------------5---------------|5-------------------------------|

 |       |       |       |        Turn me on...   |       |        
|--------------------------------|----------------4-------4-------|
|------------------------7-------|--------------------------------|
|----------------7---------------|7-------7-----------------------|
|5-------5-----------------------|--------------------------------|

 |       |       |       |        |       |       |       |        
|----------------4---------------|--------------------------------|
|--------------------------------|----------------7---------------|
|7-------7---------------7-------|5-------5-----------------------|
|--------------------------------|--------------------------------|

 |       |       |       |        |       |       |       |        
|--------------------------------|--------------------------------|
|----------------7---------------|--------------------------------|
|5-------5---------------5-------|--------------------------------|
|--------------------------------|5---------------5---------------|

 |       |       |       |        |       |       |       |        
|--------------------------------|--------------------------------|
|----------------7-------7-------|------------------------5-------|
|5-----------5-------------------|----------------7---------------|
|--------------------------------|5-------5-----------------------|

 She's a woman...|       |        |       |       |       |        
|--------------------------------|--------------------------------|
|--------------------------------|------------------------5-------|
|----------------7-------7-------|----------------7---------------|
|5-------5-----------------------|5-------------------------------|

 |       She's a woman...|        |       |       |       |        
|--------------------------------|--------------------------------|
|------------------------5-------|------------------------5-------|
|----------------7---------------|----------------7---------------|
|5-------------------------------|5-------------------------------|

 |     She's a woman...  |        |       |       |       |        
|--------------------------------|------------------------5-------|
|------------------------7-------|----------------7---------------|
|----------------7---------------|5-------5-----------------------|
|5-------5-----------------------|--------------------------------|

 |       |       |       |        |     She's a woman...  |        
|------------------------7h--9---|--------------------------------|
|----------------7---------------|------------------------5-------|
|5-------5-----------------------|----------------7---------------|
|--------------------------------|5-------------------------------|

 |       |       |       |        |       |       |       |        
|--------------------------------|--------------------------------|
|------------------------5-------|------------------------5-------|
|----------------7---------------|----------------7---------------|
|5-------------------------------|5-------------------------------|



Transcribe! 6.0 transcription http://www.seventhstring.demon.co.uk/
Created with TablEdit http://www.tabledit.com/
Get this song at amazon.com      Ebay     Ringtones Ringtones  


Learn to play: Songwriting, Piano, Harmonica, Guitar

Related Beatles Bass Tabs

Because bass
With A Little Help From My Friends bass
Hey Jude bass
Rocky Raccoon bass
Birthday bass
I Should Have Known Better bass
Eight Days A Week bass
Long tall sally bass
Ive Got A Feeling bass
All My Loving bass
Not A Second Time bass
Im Happy Just To Dance With You bass
Octopuss Garden bass
Something bass
From Me To You bass
Nowhere Man bass
Dont Pass Me By bass
Rock And Roll Music bass
Love Me Do bass
Help bass


Guitar Tabs









All tabs are property and copyright of their owners. All tabs provided for educational purposes only. Privacy Policy, DMCA