Beatles

Old Brown Shoe Bass Tabs



More from Beatles

Beatles Tabs
Beatles Chords
Beatles Bass
Beatles Lyrics

  ----------------------------------------------------------



THE BEATLES - OLD BROWN SHOE (Harrison) From BEATLES PAST

MASTERS II. (First released as the B side of

THE BALLAD OF JOHN AND YOKO single on May

30th of 1969).



----------------------------------------------------------



Bass tab by: PJVillanueva









I want a love that's right,

But right is only half of what's wrong

I want a short haired girl

Who sometimes wears it twice as long



Now I'm stepping out this old brown shoe

Baby, I'm in love with you

I'm so glad you came here,

It won't be the same now I'm telling you



You know you pick me up

From where some tried to drag me down

And when I see your smile

Replacing every thoughtless frown



So please, escape from this zoo

Baby, I'm in love with you

I'm so glad you came here

It won't be the same now when I'm with you



If I grow up I'll be a singer

Wearing rings on every finger

Not worrying what they or you'll say

I'll live and love and maybe someday

Who knows baby you may comfort me



SOLO



I may appear to be imperfect

My love is something you can reject

I'm changing faster than the weather

If you and me should get together

Who knows maybe you may comfort me



I know my love is yours

To miss that love is something I'd hate

I'll make an early start

I'm making sure that I'm not late



For your sweet top lip I'm in the queue

Baby I'm in love with you

I'm so glad you came here

It won't be the same now when I'm with you







12/8 Time



INTRO



G|------ ------ ------ ------|------ ------ ------ ------|

D|---------------------------|---------------------------|

A|---------------------------|---------------------0-1-2-|

E|---------------------------|---------------------------|







G|------ ------ ------ ------|------ ------ ------ ------|

D|---------------------------|---------------------------|

A|3--------------------------|---------------------0-1-2-|

E|---------------------------|---------------------------|





x X X X

G|------ ------ ------ ------|------ ------ ------ ------|

D|---------------------------|---------------------------|

A|3--------------------------|---------------------0/1/2-|

E|---------------------------|---------------------------|

I want a



00:07 VERSE

X

G|------ ------ ------ ------|------ ------ ------ ------|

D|---------------------------|---------------------------|

A|3---3--3---3--3------3-----|3---3--3---3--3------0-1-2-|

E|---------------------------|---------------------------|

love right, but right is only half what's

that's of wrong



G|------ ------ ------ ------|------ ------ ------ ------|

D|---------------------3---1-|---------------------------|

A|3------3------3P1-3--------|3---3--3------3------3-----|

E|---------------------------|---------------------------|

I want a





G|------ ------ ------ ------|------ ------ ------ ------|

D|---------------------------|---------------------------|

A/5------5---5--5---5--5-----/5------5------5------5-----|

E|---------------------------|---------------------------|

short girl who sometimes wears it twice as long

haired



G|------ ------ ------ ------|------ ------ ------ 9\----|

D|---------------------5---3-|---------------------------|

A/5---5--5------5P3-5--------|5------5-------------------|

E|---------------------------|---------------------------|

Now I'm



00:21



G|------ ------ ------ ------|------ ------ ------ ----8-|

D|3---3--3------3---3--3---3-|3---3--3---3--3---3-/10----|

A|---------------------------|---------------------------|

E|---------------------------|---------------------------|

stepping out this old brown shoe





G|------ ------ ------ ------|------ ------ ------ --8-10|

D|6------6---6--6---6--6-----|6---6--6---6--6-----/10----|

A|---------------------------|---------------------------|

E|---------------------------|---------------------------|

Baby, I'm in love you I'm

with



G|------ ------ ------ ------|------ ------ ------ ------|

D|-------------------------10|-------------------------9-|

A|8---8--8---8--8---8-/12----|7---7--7------7-----/11----|

E|---------------------------|---------------------------|

so you came here, it won't the same now I'm

glad be



G|------ ------ ------ ------|------ ------ ------ ------|

D|7------5-------------------|---------------------------|

A|--------------7------5-----|3------0------0------1-----|

E|---------------------------|---------------------------|

telling

you



00:34



G|------ ------ ------ ------|------ ------ ------ ------|

D|---------------------------|---------------------------|

A|3------3---3--3---3--3---3-|3------3------3------3-----|

E|---------------------------|---------------------------|

You you

know

00:37 VERSE



G|------ ------ ------ ------|------ ------ ------ ------|

D|---------------------------|---------------------------|

A/3------3------3------3-----/3---3--3---3--3------3-----|

E|---------------------------|---------------------------|

pick me up from some to drag me down

where tried



G|------ ------ ------ ------|------ ------ ------ ------|

D|---------------------3---1-|---------------------------|

A/3------3------3P1-3--------|3------3------3------3---3-|

E|---------------------------|---------------------------|

And I

when



G|------ ------ ------ ------|------ ------ ------ ------|

D|---------------------------|---------------------------|

A/5------5---5--5---5--5---5-|5------5---5--5---5--5---5-|

E|---------------------------|---------------------------|

see your smile Replacing every frown

thoughtless



G|------ ------ ------ ------|------ ------ ------ 10\---|

D|---------------------5---3-|---------------------------|

A/5---5--5---5--5P3-5--------|5---5--5-------------------|

E|---------------------------|---------------------------|









G|------ ------ ----3- 5P3---|------ ------ ------ ----5-|

D|3---3--3---3--3/5--------5-|3---3--3---3--3---3-/7-----|

A|---------------------------|---------------------------|

E|---------------------------|---------------------------|

So please, from this zoo

escape



G|------ ------ ------ ------|------ ------ --8-10-8-----|

D|6------6---6--6------6---6-|6---6--6---6-/10------10-8-|

A|---------------------------|---------------------------|

E|---------------------------|---------------------------|

Yeah, I'm in love you I'm

with



G|------ ------ ------ ------|------ ------ ------ ------|

D|------------------10-1210--|------------------9--10P9--|

A|8---8--8---8--1012-------12|7---7--7---7--9/11-------11|

E|----------------/----------|---------------------------|

so you came here It won't the same now I'm

glad be when



G|------ ------ ------ ------|------ ------ ------ 2-----|

D|7------5-------------------|-------------------------2/|

A|--------------7------5-----|3------0------0------------|

E|---------------------------|---------------------------|

with

you



01:04 BRIDGE



G|------ ------ --7-9- 7-----|------ ------ --7-9- 7-----|

D|5---5--5---5-/9--------9-7-|5---5--5---5-/9--------9-7-|

A|---------------------------|---------------------------|

E|---------------------------|---------------------------|

If I grow I'll be a singer

up



G|------ ------ --7-9- 7-----|------ ------ --5-7- 5-----|

D|5---5--5---5-/9--------9-7-|3---3--3---3-/7--------7-3/|

A|---------------------------|---------------------------|

E|---------------------------|---------------------------|

wearing on every finger

rings



G|------ ------ --7-9- 7-----|------ ------ --7-9- 7-----|

D|5---5--5---5-/9--------9-7-|5---5--5---5-/9--------9-7-|

A|---------------------------|---------------------------|

E|---------------------------|---------------------------|

Not what or you'll say

worrying they



G|------ ------ --7-9- 7-----|------ ------ --5-7- 5-----|

D|5---5--5---5-/9--------9-7-|3---3--3---3-/7--------7-5\|

A|---------------------------|---------------------------|

E|---------------------------|---------------------------|

I'll and and maybe someday

live love



G|------ ------ --5-7- 5-----|------ ------ --5-7- 5-----|

D|4---4--4---4-/7--------7-5\|4---4--4---4-/7--------7-4-|

A|---------------------------|---------------------------|

E|---------------------------|---------------------------|

who knows maybe you may comfort me





G|----7- ----7- ----7- ----10|------ ----10 ----10 ------|

D|5---5------5-/9----------12|----12-----12-----12-------|

A|---------------------------|---------------------------|

E|---------------------------|---------------------------|





01:24 INTERLUDE (GUITAR RIFF)



G|------ ------ ------ ------|------ ------ ------ ------|

D|---------------------------|-----------3------2--------|

A|3------3------3------3-----|3------3------3------3-----|

E|---------------------------|---------------------------|







G|------ ------ ------ ------|------ ------ ------ ------|

D|---------------------3---2-|---------------------------|

A|3------3---3--3------------|3------3------3---3--3-----|

E|---------------------------|---------------------------|







G|------ ------ ------ ------|------ ------ ------ ------|

D|---------------------------|---------------------------|

A/5------5---5--5---2--3---4-|5------5---5--5---2--3---4-|

E|---------------------------|---------------------------|







G|------ ------ ------ ------|------ ------ ------ 10\---|

D|---------------------5---3-|---------------------------|

A|5---5--5------5P3-5--------|5---5--5-------------------|

E|---------------------------|---------------------------|





01:37 SOLO



G|------ ------ ----5- ------|------ ------ --5-7- 5-----|

D|3---3--3----5/7------7\----|3------3-----/7----------7-|

A|---------------------------|---------------------------|

E|---------------------------|---------------------------|







G|------ ------ ----8- 10-8--|------ ------ --8-10 8-----|

D|6------6---6--8/10-------10|6------6---6--10-------10-7|

A|---------------------------|---------------------------|

E|---------------------------|---------------------------|







G|------ ------ ------ ------|------ ------ ------ ------|

D|------------------10-------|------------------9--------|

A|8------8-----/12-----12\---|7------7-----/11-----11\---|

E|---------------------------|---------------------------|







G|------ ------ ------ ------|------ ------ ------ ------|

D|7------5-------------------|---------------------------|

A|--------------7------5-----|3------0---0--0------2-----|

E|---------------------------|---------------------------|





01:51 BRIDGE



G|------ ------ --7-9- 7-----|------ ------ --7-9- 7-----|

D|5---5--5---5-/9--------9-7-|5---5--5---5-/9--------9-7-|

A|---------------------------|---------------------------|

E|---------------------------|---------------------------|

I may appear to be imperfect





G|------ ------ --7-9- 7-----|------ ------ --5-7- 5-----|

D|5---5--5---5-/9--------9-7-|3---3--3---3-/7--------7-3/|

A|---------------------------|---------------------------|

E|---------------------------|---------------------------|

My love something can reject

is you



G|------ ------ --7-9- 7-----|------ ------ --7-9- 7-----|

D|5---5--5---5-/9--------9-7-|5---5--5---5-/9--------9-7-|

A|---------------------------|---------------------------|

E|---------------------------|---------------------------|

I'm faster than the weather

changing



G|------ ------ --7-9- 7-----|------ ------ --5-7- 5-----|

D|5---5--5---5-/9--------9-7-|3---3--3---3-/7--------7-5\|

A|---------------------------|---------------------------|

E|---------------------------|---------------------------|

If you me should get together

and



G|------ ------ --5-7- 5-----|------ ------ --5-7- 5-----|

D|4---4--4---4-/7--------7-5\|4---4--4---4-/7--------7-4/|

A|---------------------------|---------------------------|

E|---------------------------|---------------------------|

who knows maybe you may comfort me





G|----7- ----7- ----7- ----7-|----10 ----10 ----10 ------|

D|5---9------9------9------9-|----12-----12-----12-------|

A|---------------------------|---------------------------|

E|---------------------------|---------------------------|

I know

my

02:11 VERSE



G|------ ------ ------ ------|------ ------ ------ ------|

D|---------------------------|---------------------------|

A|3---3--3------3------1---/-|3------3------3---3--1---2-|

E|---------------------------|---------------------------|

love yours To miss that is something hate

is love I'd



G|------ ------ ------ ------|------ ------ ------ ------|

D|---------------------3---1-|---------------------------|

A|3------3------3P1-3--------|3------3---3--3\2/3--3-----|

E|---------------------------|---------------------------|

I'll an

make



G|------ ------ ------ ------|------ ------ ------ ------|

D|---------------------------|---------------------------|

A|5------5---5--5---5--5---5-/5---5--5---5--5---5--5-----|

E|---------------------------|---------------------------|

early start I'm making sure that not late

I'm



G|------ ------ ------ ------|------ ------ ------ 10\---|

D|---------------------5---3-|---------------------------|

A|5------5------5P3-5--------|5---5--5---5--5------------|

E|---------------------------|---------------------------|









G|------ ------ ----5- ------|------ ------ --5-7- 5-----|

D|3------3-----/7------7\5-3-|1------1-----/7----------7-|

A|---------------------------|---------------------------|

E|---------------------------|---------------------------|

For sweet lip I'm in the queue

your top



G|------ ------ ----8- 10P8--|------ ------ --8-10 8-----|

D|6------6-----/10---------10|6------6-----/10-------10-7|

A|---------------------------|---------------------------|

E|---------------------------|---------------------------|

Baby, I'm in love you I'm

with



G|------ ------ ------ --P---|------ ------ ------ ------|

D|------------------10-1210--|------------------9--------|

A|8------8-----/12---------12|7------7-----/11-----11\---|

E|---------------------------|---------------------------|

so glad came here won't be the same now I'm

you it that



G|------ ------ ------ ------|------ ------ ------ ------|

D|7------5-------------------|---------------------------|

A|--------------7------5-----|3------0------0------3-----|

E|---------------------------|---------------------------|

with I'm

you



G|------ ------ ------ --P---|------ ------ ------ ------|

D|------------------10-1210--|------------------9--------|

A|-------8-----/12---------12|7------7-----/11-----11\---|

E|---------------------------|---------------------------|

so glad came here won't be the same now I'm

you it that



G|------ ------ ------ ------|------ ------ ------ ------|

D|7------5-------------------|---------------------------|

A|--------------7------5-----|3------0------0------1-----|

E|---------------------------|---------------------------|

with Yeah yeah yeah!

you



02:45 INTERLUDE



G|------ ------ ------ ------|------ ------ 5---3- ------|

D|---------------------3---1-|---------------------3---1-|

A|3------3---3--3P1-3--------|3------3-------------------|

E|---------------------------|---------------------------|







G|------ ------ ------ ------|------ ------ ------ ------|

D|---------------------3---1-|--------------5-4-4--3---1-|

A|3------3---3--3P1-3--------|3------3-------------------|

E|---------------------------|---------------------------|







G|------ ------ ------ ------|------ ------ ------ ------|

D|---------------------------|---------------------3---1-|

A|1---3--3---3--3---3--3---3-|3---3--3---3--3P1-3--------|

E|---------------------------|---------------------------|



X X x x x



G|------ ------ ------ ------|5---3- ------ ------ ------|

D|---------------------3---1-|-------5---4--3---3--1-----|

A|3------3---3--3P1-3--------|---------------------------|

E|---------------------------|---------------------------|





02:59 CODA



G|------ ------ ------ ------|------ ------ ------ ------|

D|---------------------------|---------------------------|

A|3---3--3------3---3--3-----|3------3---3--3---3--3-----|

E|---------------------------|---------------------------|





X X X

G|------ ------ 5---3- ------|------ ------ ------ ------|

D|---------------------5---4-|3---1-----------------3----|

A|3------3-------------------|-------3------3---3--------|

E|---------------------------|---------------------------|





x x x X X X

G|------ ------ ------ ------|------ ------ ------ ------|

D|---------------------3---1-|---------------------------|

A|3------3------3P1-3--------|3------3------3------3-----|

E|---------------------------|---------------------------|







G|------ ------ ------ ------|5---3- ------ ------ ------|

D|---------------------------|-------5---4--3---1--------|

A|3------3------3---3--3-----|---------------------3---1-|

E|---------------------------|---------------------------|

...................... Fade out .......................





G|------ ------ ------ ------|------ ------ ------ ------|

D|---3---1-------------------|---------------------------|

A/3----------3--3---3--3-----|3------3------3------3-----|

E|---------------------------|---------------------------|

.......................................................















B Bend

R Release

/ Slide up

\ Slide down

H Hammer-on

P Pull-off

~ Vibrato

+ Harmonic

x Mute note

. Play note like a dot in standard notation

^ Ties two notes together

(. Pause







Added by tabs-database.com and our distinguished partners
Get this song at amazon.com      Ebay     Ringtones Ringtones  


Learn to play: Songwriting, Piano, Harmonica, Guitar

Related Beatles Tabs

Getback tabs
Yellowsubmarine tabs
Hard Days Night tabs
Everybodys Trying To Be My Baby tabs
Think For Yourself tabs
Cry For A Shadow tabs
Here There And Everywhere Bass tabs
Eight Days A Week tabs
Goodnight tabs
Because tabs
Back In The U. S. S. R. tabs
Revolution One tabs
While My Guitar Gently Weeps Acoustic tabs
Michelle tabs
Blackbird Btab tabs
Free As A Bird tabs
Good Morning Good Morning tabs
Hello~c Goodbye tabs
Inmylife tabs
One And One Is Two tabs


Guitar Tabs









All tabs are property and copyright of their owners. All tabs provided for educational purposes only. Privacy Policy, DMCA