Beatles

Nowhere Man Bass Tabs



More from Beatles

Beatles Tabs
Beatles Chords
Beatles Bass
Beatles Lyrics

  -------------------------------------------------------------



THE BEATLES - NOWHERE MAN (Lennon/McCartney) from RUBBER SOUL

album. Released December 3rd 1965.



-------------------------------------------------------------



Bass tab by: PJVillanueva











He's a real Nowhere Man,

Sitting in his Nowhere Land,

Making all his nowhere plans for nobody.



Doesn't kave a point of view,

Knows not where he's going to,

Isn't he a bit like you and me?



Nowhere Man, please listen,

You don't know what you're missing,

Nowhere Man, the world is at your command.





SOLO



He's as blind as he can be,

Just sees what he wants to see,

Nowhere Man can you see me at all?



Nowhere Man, don't worry,

Take your time, don't hurry,

Leave it all till somebody else

lends you a hand.



Doesn't have a point of view,

Knows not where he's going to,

Isn't he a bit like you and me?



Nowhere Man, please listen,

You don't know what you're missing,

Nowhere Man, the world is at your command.



He's a real Nowhere Man,

Sitting in his Nowhere Land,

Making all his nowhere plans for nobody.

Making all his nowhere plans for nobody.

Making all his nowhere plans for nobody.











INTRO



G|------- ------- ------- -------|------- ------- ------- -------|

D|-------------------------------|-------------------------------|

A|-------------------------------|-------------------------------|

E|-------------------------------|-------------------------------|

He's a real nowhere man,





G|------- ------- ------- -------|------- ------- ------- -------|

D|-------------------------------|-------------------------------|

A|-------------------------------|-------------------------------|

E|-------------------------------|-------------------------------|

Sitting in his nowhere land,



00:08

G|------- ------- ------- -------|------- ------- ------- -------|

D|7-------6-------4-----------7--|----7---6-------4--------------|

A|--------------------7---4------|--------------------7---4---7--|

E|-------------------------------|-------------------------------|

Making all his nowhere plans for





G|------- ------- ------- -------|------- ------- ------- -------|

D|--------6-------7---8---9------|--------6-------7---8---9------|

A|7---7-----------------------7--|----7--------------------------|

E|-------------------------------|-------------------------------|

nobody.



VERSE

00:16

G|------- ------- ------- -------|------- ------- ------- -------|

D|--------6-------7---8---9------|------------------------6---7--|

A|7------------------------------|--------6-------9---9----------|

E|----------------------------7--|----7--------------------------|

Doesn't have a point view,

of



G|------- ------- ------- -------|------- ------- ----6-- -------|

D|--------6-------4--------------|--------6-------9-------9---7--|

A|--------------------7---4---7--|----7--------------------------|

E|-------------------------------|-------------------------------|

Knows not where he's going to,





G|------- ------- ------- -------|------- ------- ------- -------|

D|----7---6-------4-----------7--|----7---6-------4--------------|

A|--------------------7---4------|--------------------7---4---7--|

E|-------------------------------|-------------------------------|

Isn't he a bit like you and





G|------- ------- ------- -------|------- ------- ------- -------|

D|--------6-------7---8---9------|-------------------------------|

A|----7-----------------------7--|--------7-------7---7---7------|

E|-------------------------------|-------------------------------|

me? Nowhere man,



MIDDLE EIGHT

00:32

G|------- ------- ------- -------|------- ------- ------- -------|

D|6---------------6---6-------6--|7---------------7---7----------|

A|--------6----------------------|--------7-------------------7--|

E|-------------------------------|-------------------------------|

please listen, You don't know



G|------- ------- ------- -------|------- ------- ------- -------|

D|----------------6---6----------|----------------7---7----------|

A|--------6-------------------6--|0-------7---------------7-\----|

E|4------------------------------|-------------------------------|

what you're missing, Nowhere







G|------- ------- ------- -------|------- ------- ------- -------|

D|----------------6---6----------|--------4---2---------------2--|

A|--------6-------------------6--|0---4-------------------4------|

E|4------------------------------|-------------------------------|

Man the world is





G|------- ------- ------- -------|------- 1------ ------- -------|

D|--------4---2---------------2--|----1-------4------------------|

A|0---4-------------------4------|2-------------------2---2-/----|

E|-------------------------------|-------------------------------|

At your command



SOLO

00:47

G|------- ------- ------- -------|------- ------- ------- -------|

D|--------6-------7---8---9------|------------------------9---7--|

A|7------------------------------|--------6-------9---6----------|

E|----------------------------7--|----7--------------------------|







G|------- ------- ------- -------|------- ------- ------- -------|

D|----7---6-------4--------------|--------6-------9---6-------7--|

A|--------------------7---4---7--|7---7-------------------7------|

E|-------------------------------|-------------------------------|







G|------- ------- ------- -------|------- ------- ------- -------|

D|----7---6-------4-----------7--|----7---6-------4--------------|

A|--------------------7---4------|--------------------7---4---7--|

E|-------------------------------|-------------------------------|







G|------- ------- ------- -------|------- ------- ------- -------|

D|--------6-------9---6---9------|-------------------------------|

A|----7-----------------------7--|----7---7-------7---7-------7--|

E|-------------------------------|-------------------------------|





VERSE

01:03

G|------- ------- ------- -------|------- ------- ------- -------|

D|--------6-------7---8---9------|----------------------------7--|

A|7------------------------------|--------6-------9---6----------|

E|----------------------------7--|7-----------------------7------|

He's as blind as he can be,





G|------- ------- ------- -------|------- ------- ------- -------|

D|----7---6-------4--------------|--------6-------9---6-------6--|

A|--------------------7---4---7--|----7-------------------7------|

E|-------------------------------|-------------------------------|

Just sees what he wants to see,





G|------- ------- ------- -------|------- ------- ------- -------|

D|7-------6-------4-----------7--|----7---6-------4--------------|

A|--------------------7---4------|--------------------7---4---7--|

E|-------------------------------|-------------------------------|

Nowhere man can you see me at all?





G|------- ------- ------- -------|------- ------- ------- -------|

D|----------------6---9---6------|-------------------------------|

A|7-------7-------------------4-/|7---7---7---7---7---7---7---7--|

E|-------------------------------|-------------------------------|

Nowhere man,



MIDDLE EIGHT

01:19

G|------- ------- ------- -------|------- ------- ------- -------|

D|----------------6---6----------|----------------7---7----------|

A|--------6---------------6------|0-------7---------------7------|

E|4---------------------------4--|-------------------------------|

don't worry take your time,





G|------- ------- ------- -------|------- ------- ------- -------|

D|----------------6---6----------|----------------7---7-------7--|

A|--------6---------------6------|0-------7---------------7------|

E|4---------------------------4--|-------------------------------|

don't hurry Leave it





G|------- ------- ------- -------|------- ------- ------- -------|

D|----------------6---6-------6--|--------4---2-------2-------2--|

A|--------6---------------6------|0---4-------------------4------|

E|4------------------------------|-------------------------------|

All till else lends

somebody



G|------- ------- ------- -------|------- 1------ ------- -------|

D|--------4---2---------------2--|----1-------4------------------|

A|0---4-------------------4------|2------------------------------|

E|-------------------------------|-------------------------------|

you a hand



VERSE

01:35

G|------- ------- ------- -------|------- ------- ------- -------|

D|--------6-------7---8---9------|--------------------6----------|

A|7------------------------------|--------6-------9-----------7--|

E|----------------------------7--|----7--------------------------|

Doesn't have a point view,

of



G|------- ------- ------- -------|------- ------- ------- -------|

D|7-------6-------4--------------|--------6-------9---6----------|

A|--------------------7---4---7--|----7-------------------7------|

E|-------------------------------|-------------------------------|

Knows not where he's going to,





G|------- ------- ------- -------|------- ------- ------- -------|

D|7-------6-------4-----------7--|----7---6-------4--------------|

A|--------------------7---4------|--------------------7---4---7--|

E|-------------------------------|-------------------------------|

Isn't he a bit like you and





G|------- ------- ------- -------|------- ------- ------- -------|

D|--------6-------9---6---9------|--------6-------9---6----------|

A|----7-----------------------7--|----7-----------------------7--|

E|-------------------------------|-------------------------------|

me? Nowhere man,



MIDDLE EIGHT

01:51

G|------- ------- ------- -------|------- ------- ------- -------|

D|--------------------6----------|-------------------------------|

A|----------------6-------6------|0-----------7---7-------7------|

E|--------4-------------------4--|-------------------------------|

please, listen You don't know



G|------- ------- ------- -------|------- ------- ------- -------|

D|--------------------6----------|--------------------7----------|

A|------------6-----------6------|0-----------7-----------7------|

E|4---------------------------4--|----------------------------5--|

what you're missing, Nowhere







G|------- ------- ------- -------|------- ------- ------- -------|

D|--------------------6----------|--------4---2---------------2--|

A|------------6-----------6------|0---4-------------------4------|

E|4-------4-------------------4--|-------------------------------|

Man the world is





G|------- ------- ------- -------|------- 1------ ------- -------|

D|--------4---2---------------2--|----1-------4------------------|

A|0---4-------------------4------|2-------------------2---2-/----|

E|-------------------------------|-------------------------------|

At your command



CODA

02:07

G|------- ------- ------- -------|------- ------- ------- -------|

D|--------6-------7---8---9------|------------------------6------|

A|7------------------------------|--------6-------9---9----------|

E|----------------------------7--|----7--------------------------|

He's a real nowhere man





G|------- ------- ------- -------|------- ------- ------- -------|

D|7-------6-------4--------------|--------6-------7---8---9---7--|

A|--------------------7---4---7--|----7--------------------------|

E|-------------------------------|-------------------------------|

Sitting in his nowhere land





G|------- ------- ------- -------|------- ------- ------- -------|

D|----7---6-------4--------------|7---7---6-------4--------------|

A|--------------------7---4------|--------------------7---4------|

E|-------------------------------|-------------------------------|

Making all his nowhere plans for





G|------- ------- ------- -------|------- ------- ------- -------|

D|------------6---9-------6---9--|-------------------------------|

A|7-------7----------------------|7-------7-------7---7-------7--|

E|-------------------------------|-------------------------------|

nobody.





G|------- ------- ------- -------|------- ------- ------- -------|

D|7-------6-------4--------------|7-------6-------4--------------|

A|--------------------7---4------|--------------------7---4------|

E|-------------------------------|-------------------------------|

Making all his nowhere plans for





G|------- ------- ------- -------|------- ------- ------- -------|

D|-------------------------------|-------------------------------|

A|7-------7-------7---7-------5-/|7---7---7---7---7---7---7---7--|

E|-------------------------------|-------------------------------|

nobody.



02:31

G|------- ------- ------- -------|------- ------- ------- -------|

D|7-------6-------4--------------|7-------6-------4--------------|

A|--------------------7---4------|--------------------7---4------|

E|-------------------------------|-------------------------------|

Making all his nowhere plans for



(.

G|------- ------- ------- -------|------- ------- ------- -------|

D|----------------6---9---6------|-------------------------------|

A|7-------7---------------------6/7------------------------------|

E|-------------------------------|-------------------------------|

nobody.

















B Bend

R Release

/ slide up

\ slide down

H hammer-on

P pull-off

~ vibrato

* harmonic

x Mute note

. - play note like a dot in standard notation

^ - ties two notes together

(. Pause





Added by tabs-database.com and our distinguished partners
Get this song at amazon.com      Ebay     Ringtones Ringtones  


Learn to play: Songwriting, Piano, Harmonica, Guitar

Related Beatles Tabs

Good Night tabs
Got To Get You Into My Life tabs
And Your Bird Can Sing tabs
Good Morning Good Morning tabs
And I Love Her (Version 2) tabs
Isawherstandingthere tabs
Everybodys Tryin To Be My Babe tabs
Baby Its You tabs
When I Get Home tabs
Norwegianwood tabs
If I Fell Bass tabs
Norwegian Wood tabs
Theres A Place tabs
I Dont Want To Spoil The Party tabs
Eleanor Rigby tabs
And Your Bird Can Sing (Version 2) tabs
Chains Bass tabs
Whilemyguitargentlyweeps tabs
Yellowsubmarine tabs
Drivemycar tabs


Guitar Tabs









All tabs are property and copyright of their owners. All tabs provided for educational purposes only. Privacy Policy, DMCA