Beatles

Magical Mystery Tour Bass Tabs



More from Beatles

Beatles Tabs
Beatles Chords
Beatles Bass
Beatles Lyrics

Title        : Magical Mystery Tour
Artist/Group : The Beatles Album : Magical Mystery Tour
Info : 4 String Standard Bass
Date - Time : 8/1/2002 - 7:48:16 PM
Created by : Ken Robertson

G---------|---------------|----------------------------------|
D-----7---|---------------|-2---2---2---2---0h-2-2-2-2-------|
A---5---7-|---------------|----------------------------5-2---|
E---------|-0-3-5---0-3-5-|--------------------------------5-|

G---------------------------------|
D---------------------------------|
A---------------------------------|
E---3---3---3---3---5---5---5---5-|

G------------------------------------|-------------------------------|
D---0h-2-2-2-2-2-2-2-2-2-2-2-2-------|-------------------------------|
A------------------------------5-2---|-------------------------------|
E----------------------------------5-|-3---3---3---3---5---5---5---5-|

G-------------------|
D-----------7---7-7-|
A---5-3-2-1---------|
E-------------------|

G-----------------|---------------------------------|---------------------|
D-----------------|-2-2-2-2-2-2-2-2-2-2-2-2-2-------|---------------------|
A---7-------7-----|---------------------------5-2---|---------------------|
E-----3-5-----3-5-|-------------------------------5-|-3-3-3--3---5-5-5--5-|

G-----------------------------------|---------------------|
D---2-2-2-2-2-2-2-2-2-2-2-2-2-------|---------------------|
A-----------------------------5-2---|---------------------|
E---------------------------------5-|-3-3-3--3---5-5-5--5-|

G-----------------------------------------8-11-8-----------11----
D-----------7-7-7-7-7-7-7-7-9-9-9-9-9-9-9---------------------11-
A---5-3-2-1--------------------------------------9-9-9-9-9-------
E----------------------------------------------------------------

G-----------------8-11-8----------------------------------------|
D---9-9-9-9-9-9-9-----------------------------------------------|
A------------------------9-9-9-9-9-9-9--------------------------|
E--------------------------------------4-5--5--5--5--7--7--7--7-|

G-----------------|---------------------------------|
D-----------------|-2-2-2-2-2-2-2-2-2-2-2-2-2-------|
A---7-------------|---------------------------5-2---|
E-----3-5---0-3-5-|-------------------------------5-|

G-----------------------------------|
D-----------------------------------|
A---------------------------------5-|
E---3-3-3-3-3-3-3-3-5-5-5-5-5-5-5---|

G-----------------------------------|---------------------------------|
D---2-2-2-2-2-2-2-2-2-2-2-2-2-------|---------------------------------|
A-----------------------------5-2---|---------------------------------|
E---------------------------------5-|-3-3-3-3-3-3-3-3-5-5-5-5-5-5-5-5-|

G-------------------------------------------------------------|
D-----------7--7-7-7--4-----------7-7-7-7-7-7-7---7-7---7-----|
A---5-3-2-1-------------7-5-3-2-1-------------------------5-|
E-----------------------------------------------5-----5-------|

G---------7-----------72------------72-|
D---7-7-7-----7-7-7-7--------7-7-7-7-----|
A----------------------------------------|
E----------------------------------------|

G-------------------------------------|
D---7-7-75-----75-----75-----75---|
A-----------5-------5-------5-------5-|
E-------------------------------------|


*****Song fades out on this last run*****



Get this song at amazon.com      Ebay     Ringtones Ringtones  


Learn to play: Songwriting, Piano, Harmonica, Guitar

Related Beatles Bass Tabs

I Saw Her Standing There bass
Rocky Raccoon bass
Ob La Di Ob La Da bass
I Dig A Pony bass
Shes a woman bass
Penny Lane bass
Baby Its You bass
Youve Got To Hide Your Love Away bass
P s i love you bass
Ill Get You bass
Help bass
The ballad of john and yoko bass
Anna (Go to Him) bass
Blue Jay Way bass
I Should Have Known Better bass
Do You Want To Know A Secret bass
Dr robert bass
Anna bass
You Never Give Me Your Money bass
Dont Bother Me bass


Guitar Tabs









All tabs are property and copyright of their owners. All tabs provided for educational purposes only. Privacy Policy, DMCA