Beatles

Little Child Bass Tabs



More from Beatles

Beatles Tabs
Beatles Chords
Beatles Bass
Beatles Lyrics

Little Child

The Beatles

Written by John Lennon and Paul McCartney; released on "With The Beatles"

album.



Some people love to hate this song. But it's a good song to dance to, and I

like the way John plays the harmonica in it.



Intro:

G|------- ------- ------- -------|------- ------- ------- -------|

D|-------------------------------|-------------------------------|

A|-------------------------------|-------------------------------|

E|-------------------------------|-------------------------------|







G|------- ------- ------- -------|------- ------- ------- -------|

D|--------6---6---9---9---6---9--|--------6---6---9---9---6---9--|

A|7------------------------------|7---7--------------------------|

E|-------------------------------|-------------------------------|

Little

child,

Verse:

G|------- ------- ------- -------|------- ------- ------- -------|

D|--------6---6---9---9---6---9--|--------6---6---9---9---6---9--|

A|7---7--------------------------|7---7--------------------------|

E|-------------------------------|-------------------------------|

Little Little

child,



G|------- ------- ------- -------|------- ------- ------- -------|

D|--------6---6---7---7---7------|--------6---6---9---9---6---9--|

A|7---7-----------------------7--|7---7--------------------------|

E|-------------------------------|-------------------------------|

child, won't dance with me?

you



G|------- ------- ------- -------|------- ------- ------- -------|

D|-------------------------------|-------------------------------|

A|--------6---6---9---9---6---9--|--------4---4---7---7---4---7--|

E|7---7--------------------------|5---5--------------------------|

I'm so sad and lone - ly,





G|------- ------- ------- -------|------- ------- ------- -------|

D|-------------------------------|-------------------------------|

A|--------1---1---4---4---1---4--|----------------------------7--|

E|2---2--------------------------|7---7---7---7---7---7---7------|

ba- by, take a chance with me Little

child,

Verse:

G|------- ------- ------- -------|------- ------- ------- -------|

D|--------6---6---9---9---6---9--|--------6---6---9---9---6---9--|

A|7---7--------------------------|7---7--------------------------|

E|-------------------------------|-------------------------------|

Little Little

child,



G|------- ------- ------- -------|------- ------- ------- -------|

D|--------6---9---7---7---7------|--------6---6---9---9---6---9--|

A|7---7-----------------------7--|7---7--------------------------|

E|-------------------------------|-------------------------------|

child, won't dance with me?

you



G|------- ------- ------- -------|------- ------- ------- -------|

D|-------------------------------|-------------------------------|

A|--------6---6---9---9---6---9--|--------4---4---7---7---4---7--|

E|7---7--------------------------|5---5--------------------------|

I'm so sad and lone - ly,





G|------- ------- ------- -------|------- ------- ------- -------|

D|-------------------------------|------------9---9---9---9---9--|

A|--------1---4---------------7--|7---7---7----------------------|

E|2---2-----------7---7---7------|-------------------------------|

ba- by, take a chance with me If you



Bridge:

G|------- ------- ------- -------|------- ------- ------- -------|

D|-------------------------------|-------------------------------|

A|7---7---7---7---7---7---7---7--|-------------------------------|

E|-------------------------------|7---7---7---7---7---7---7---7--|

want some - one to make feel so fine, then we'll

you



G|------- ------- ------- -------|------- ------- ------- -------|

D|-------------------------------|-------------------------------|

A|7---7---7---7---7---7---7---7--|7---7---7---7---7---7---7---7--|

E|-------------------------------|-------------------------------|

have some fun when mine, oh, mine, So come

you're



G|------- ------- ------- -------|------- ------- ------- -------|

D|-------------------------------|-------------------------------|

A|9---9---9---9---9---9---9---9--|-------------------------------|

E|-------------------------------|7---7---7---7---7---7---7---7--|

on, come on, come on! Little

child,

Verse:

G|------- ------- ------- -------|------- ------- ------- -------|

D|--------6---6---9---9---6---9--|--------6---6---9---9---6---9--|

A|7---7--------------------------|7---7--------------------------|

E|-------------------------------|-------------------------------|

Little Little

child,



G|------- ------- ------- -------|------- ------- ------- -------|

D|--------6---9------------------|--------6---6---9---9---6---9--|

A|7---7-------------------4---7--|7---7--------------------------|

E|----------------5---5----------|-------------------------------|

child, won't dance with me?

you



G|------- ------- ------- -------|------- ------- ------- -------|

D|-------------------------------|-------------------------------|

A|--------6---6---9---9---6---9--|--------4---4---7---7---4---7--|

E|7---7--------------------------|5---5--------------------------|

I'm so sad and lone - ly,





G|------- ------- ------- -------|------- ------- ------- -------|

D|-------------------------------|----------------9---9---9---9--|

A|--------1---4-----------6---9--|7---7---7---7------------------|

E|2---2-----------7---7----------|-------------------------------|

ba- by, take a chance with me



Break (solo):

G|------- ------- ------- -------|------- ------- ------- -------|

D|--------6---6---9---9---6---9--|--------6---6---9---9---6---9--|

A|7---7--------------------------|7---7--------------------------|

E|-------------------------------|-------------------------------|







G|------- ------- ------- -------|------- ------- ------- -------|

D|--------6---6---9---9---6---9--|-------------------------------|

A|7---7--------------------------|7---7---7---7---7---7---7---7--|

E|-------------------------------|-------------------------------|







G|------- ------- ------- -------|------- ------- ------- -------|

D|-------------------------------|-------------------------------|

A|--------4---4---7---7---4---7--|--------4---4---7---7---4---7--|

E|5---5--------------------------|5---5--------------------------|







G|------- ------- ------- -------|------- ------- ------- -------|

D|--------6---6---9---9---6---9--|--------6---6---9---9---6---9--|

A|7---7--------------------------|7---7--------------------------|

E|-------------------------------|-------------------------------|







G|------- ------- ------- -------|------- ------- ------- -------|

D|-------------------------------|-------------------------------|

A|--------6---6---9---9---6---9--|--------4---4---7---7---4---7--|

E|7---7--------------------------|5---5--------------------------|







G|------- ------- ------- -------|------- ------- ------- -------|

D|-------------------------------|-------------------------------|

A|9---9---9---9---9---9---9---9--|-------------------------------|

E|-------------------------------|7---7---7---7---7---7----------|

When you're



Bridge:

G|------- ------- ------- -------|------- ------- ------- -------|

D|----------------9---9----------|-------------------------------|

A|7---7---7---7-----------7------|-------------------------------|

E|-------------------------------|7-------7---7---7---7---7---7--|

by my side, you're on- ly one, don't you

the



G|------- ------- ------- -------|------- ------- ------- -------|

D|-------------------------------|-------------------------------|

A|7---7---7---7---7---7---7---7--|7---7---7---7---7---7---7---7--|

E|-------------------------------|-------------------------------|

run and hide, just on, come on, Just come

come



G|------- ------- ------- -------|------- ------- ------- -------|

D|--------8---8---11--11--8---11-|9---9---9---7---7---7---6------|

A|9---9--------------------------|----------------------------9--|

E|-------------------------------|-------------------------------|

on, come on, come on! Little

child,

Verse:

G|------- ------- ------- -------|------- ------- ------- -------|

D|--------6---6---9---9---6---9--|--------6---6---9---9---6---9--|

A|7---7--------------------------|7---7--------------------------|

E|-------------------------------|-------------------------------|

Little Little

child,



G|------- ------- ------- -------|------- ------- ------- -------|

D|----------------7---7---7---7--|--------6---6---9---9---6---9--|

A|7---7---7---7------------------|7---7--------------------------|

E|-------------------------------|-------------------------------|

child, won't dance with me?

you



G|------- ------- ------- -------|------- ------- ------- -------|

D|-------------------------------|-------------------------------|

A|--------6---6---9---9---6---9--|--------4---4---7---7---4---7--|

E|7---7--------------------------|5---5--------------------------|

I'm so sad and lone - ly,





G|------- ------- ------- -------|------- ------- ------- -------|

D|-------------------------------|-------------------------------|

A|--------1---4-----------9---6--|7---7---7---7---4---4---4---4--|

E|2---2-----------7---7----------|-------------------------------|

ba- by, take a chance with me

oh, yeah!

Outro:

G|------- ------- ------- -------|------- ------- ------- -------|

D|-------------------------------|2---2---2---2------------------|

A|----------------2---2---2---2--|----------------4---4---4---4--|

E|2---2---2---2------------------|-------------------------------|

Ba- by, take a chance with me

oh, yeah!

repeat and fade...



Please e-mail me for any corrections.Added by tabs-database.com and our distinguished partners
Get this song at amazon.com      Ebay     Ringtones Ringtones  


Learn to play: Songwriting, Piano, Harmonica, Guitar

Related Beatles Tabs

Wecanworkitout tabs
Itsonlylove tabs
Back In The Ussr tabs
Herethereandeverywhere tabs
One And One Is Two tabs
Ob La Di~c Ob La Da tabs
Love Me Do tabs
Help Bass tabs
You Never Give Me Your Money tabs
Act Naturally tabs
From Me To You tabs
Twist & Shout tabs
Beatles-let It Be tabs
Getback tabs
Taxman tabs
Eleanorrigby tabs
Words Of Love tabs
Her Majesty Btab tabs
The Happy Rishikesh Song tabs
I Feel Fine Bass tabs


Guitar Tabs









All tabs are property and copyright of their owners. All tabs provided for educational purposes only. Privacy Policy, DMCA