Beatles

Kansas City Hey Hey Hey Tabs



More from Beatles

Beatles Tabs
Beatles Chords
Beatles Bass
Beatles Lyrics

------------------------------------------------------------------
THE BEATLES - MEDLEY: KANSAS CITY (Leiber/Stoller) - HEY HEY HEY
(Penniman) From BEATLES FOR SALE album. Released
on December 4th 1964.
------------------------------------------------------------------
Tabbed by:PJVillanueva
Ah, Kansas city
Gonna get my baby back home, yeah, yeah
I'm going to Kansas City
Gonna get my baby back home, yeah, yeah
Well, it's a long, long time since
My baby's been gone
Ah, Kansas City
Gonna get my baby one time, a-yeah, yeah
I'm going to Kansas City
Get my baby one time, yeah, yeah
It's just a-one, two, three, four
Five, six, seven, eight, nine
Solo
Hey, hey, hey, hey (Hey hey hey hey)
Hey, baby (Hey, baby)
Ooh, now, gall (Well, gal)
I said, yeah, now, pal (Well, pal)
No no no no, tell me, baby
What's been wrong with you?
a-Hey, hey, hey, hey (Hey hey hey hey)
Hey, now, baby (Hey, baby)
ooh, now gal (Well, gal)
I said yeah now, pal (Well, pal)
No no no no, tell me, baby
What's been wrong with you?
Well, I say bye (Bye-bye, bye-bye, bye-bye)
Bye-bye, baby, bye-bye (Bye-bye, bye-bye, bye-bye)
Ooh, so long (So long, so long, so long)
Bye-bye, baby, I'm gone (Bye-bye, bye-bye, bye-bye)
Yeah, I say, bye-bye, baby
Bye-bye bye-bye, bye now bye (bye bye, bye bye, bye bye)
Bye-bye, baby, bye-bye (Bye-bye, bye-bye, bye-bye)
So long (So long, so long, so long)...
Use a capo on 3rd fret.
e|------ ------ ------ ------|------ ------ ------ ------|
B|---------------------------|---------------------------|
G|---------------------------|---------------------------|
D|---------------------------|-------------------------2-|
A|---------------------------|------------------2--4-----|
E|---------------------------|---------------------------|
E A7sus2
e|0-0-0- 0-0-0- 0----- ------|0-0-0- 0-0-0- 0----- ------|
B|0-0-0--0-0-0--0------------|0-0-0--0-0-0--0------------|
G|1-1-1--1-1-1--1------------|0-0-0--0-0-0--0------------|
D|2-2-2--2-2-2--2------------|2-2-2--2-2-2--2------------|
A|2-2-2--2-2-2--2------------|0-0-0--0-0-0--0------------|
E|0-0-0--0-0-0--0------------|---------------------------|
e|------ ------ ------ ------|------ ------ ------ ------|
B|---------------------------|---------------------------|
G|---------------------------|---------------------------|
D|6-6-6--6-6-6--6----------2-|5-5-5--5-5-5--5----------4-|
A|------------------2--4-----|------------------2--4-----|
E|---------------------------|---------------------------|
E A A# B
e|0-0-0- 0-0-0- 0-0-0- 0-0-0-|----0- 1---2- ------ ------|
B|0-0-0--0-0-0--0-0-0--0-0-0-|----2--3---4---------------|
G|1-1-1--1-1-1--1-1-1--1-1-1-|1---2--3---4---------------|
D|2-2-2--2-2-2--2-2-2--2-2-2-|2---2--3---4---------------|
A|2-2-2--2-2-2--2-2-2--2-2-2-|2---0--1---2---------------|
E|0-0-0--0-0-0--0-0-0--0-0-0-|0--------------------------|
e|------ ------ ------ ------|------ ------ ------ ------|
B|---------------------------|----0------0---------------|
G|---------------------------|----2------2---------------|
D|6-6-6--6-6-6--6-6-6--6-6-6-|6---1------1---------------|
A|---------------------------|----2------2---------------|
E|---------------------------|---------------------------|
Ah
E7 E13 E7 E13
e|0----- 0----- 0----- 0-----|0----- 0----- 0----- 0-----|
B|0------2------3------2-----|0------2------3------2-----|
G|1------1------1------1-----|1------1------1------1-----|
D|0------0------0------0-----|0------0------0------0-----|
A|2------2------2------2-----|2------2------2------2-----|
E|0------0------0------0-----|0------0------0------0-----|
Kansas city gonna get my baby back home
e|------ ------ ------ ------|------ ------ ------ ------|
B|---------------------------|---------------------------|
G|1------2----/-4------2-----|1------2----/-4------2-----|
D|0------0------0------0-----|0------0------0------0-----|
A|2------4----/-5------4-----|2------4----/-5------4-----|
E|0------0------0------0-----|0------0------0------0-----|
e|0----- 0----- 0----- 0-----|0----- 0----- 0----- 0-----|
B|0------2------3------2-----|0------2------3------2-----|
G|1------1------1------1-----|1------1------1------1-----|
D|0------0------0------0-----|0------0------0------0-----|
A|2------2------2------2-----|2------2------2------2-----|
E|0------0------0------0-----|0------0------0------0-----|
Yeah, yeah I'm gonna
e|------ ------ ------ ------|------ ------ ------ ------|
B|---------------------------|---------------------------|
G|1------2----/-4------2-----|1------2----/-4------2-----|
D|0------0------0------0-----|0------0------0------0-----|
A|2------4----/-5------4-----|2------4----/-5------4-----|
E|0------0------0------0-----|0------0------0------0-----|
A7 A13 A7 A13
e|0----- 2----- 3----- 2-----|0----- 2----- 3----- 2-----|
B|2------2------2------2-----|2------2------2------2-----|
G|0------0------0------0-----|0------0------0------0-----|
D|2------2------2------2-----|2------2------2------2-----|
A|0------0------0------0-----|0------0------0------0-----|
E|---------------------------|---------------------------|
Kansas city gonna get my baby back home
e|------ ------ ------ ------|------ ------ ------ ------|
B|2------3----/-5------3-----|2------3----/-5------3-----|
G|0------0------0------0-----|0------0------0------0-----|
D|2------4----/-5------4-----|2------4----/-5------4-----|
A|0------0------0------0-----|0------0------0------0-----|
E|---------------------------|---------------------------|
E7 E13 E7 E13
e|0----- 0----- 0----- 0-----|0----- 0----- 0----- 0-----|
B|0------2------3------2-----|0------2------3------2-----|
G|1------1------1------1-----|1------1------1------1-----|
D|0------0------0------0-----|0------0------0------0-----|
A|2------2------2------2-----|2------2------2------2-----|
E|0------0------0------0-----|0------0------0------0-----|
Yeah, yeah Well it's a
e|------ ------ ------ ------|------ ------ ------ ------|
B|---------------------------|---------------------------|
G|1------2----/-4------2-----|1------2----/-4------2-----|
D|0------0------0------0-----|0------0------0------0-----|
A|2------4----/-5------4-----|2------4----/-5------4-----|
E|0------0------0------0-----|0------0------0------0-----|
B7 B13 B7 B13 A7 A13 A7 A13
e|2---2- 4----- 5----- 4-----|0---0- 2----- 3----- 2-----|
B|4---4--4------4------4-----|2---2--2------2------2-----|
G|2---2--2------2------2-----|0---0--0------0------0-----|
D|4---4--4------4------4-----|2---2--2------2------2-----|
A|2---2--2------2------2-----|0---0--0------0------0-----|
E|---------------------------|---------------------------|
long long time since my baby's been gone
e|------ ------ ------ ------|------ ------ ------ ------|
B|4------5----/-7------5-----|2------3----/-5------3-----|
G|4------4----/-8------4-----|0------0------0------0-----|
D|4------6----/-7------6-----|2------4----/-5------4-----|
A|---------------------------|0------0------0------0-----|
E|---------------------------|---------------------------|
E7 E13 E7 E13 E7 A6 Bb6 B6
e|0----- 0----- 0----- 0-----|0---2- 3---4- ------ ------|
B|0------2------3------2-----|0---2--3---4---------------|
G|1------1------1------1-----|1---2--3---4---------------|
D|0------0------0------0-----|0--------------------------|
A|2------2------2------2-----|2--------------------------|
E|0------0------0------0-----|0--------------------------|
e|------ ------ ------ ------|------ ------ ------ ------|
B|---------------------------|---------------------------|
G|1------2----/-4------2-----|1---2--3---4---------------|
D|0------0------0------0-----|0---2--3---4---------------|
A|2------4----/-5------4-----|2---0--1---2---------------|
E|0------0------0------0-----|0--------------------------|
Ah
E7 E13 E7 E13
e|0----- 0----- 0----- 0-----|0----- 0----- 0----- 0-----|
B|0------2------3------2-----|0------2------3------2-----|
G|1------1------1------1-----|1------1------1------1-----|
D|0------0------0------0-----|0------0------0------0-----|
A|2------2------2------2-----|2------2------2------2-----|
E|0------0------0------0-----|0------0------0------0-----|
Kansas city gonna get my babe one time
e|------ ------ ------ ------|------ ------ ------ ------|
B|---------------------------|---------------------------|
G|1------2----/-4------2-----|1------2----/-4------2-----|
D|0------0------0------0-----|0------0------0------0-----|
A|2------4----/-5------4-----|2------4----/-5------4-----|
E|0------0------0------0-----|0------0------0------0-----|
E7
e|0----- 0----- 0----- 0-----|0---0- 0---0- 0---0- 0---0-|
B|0------2------3------2-----|3---3--3---3--3---3--3---3-|
G|1------1------1------1-----|1---1--1---1--1---1--1---1-|
D|0------0------0------0-----|0---0--0---0--0---0--0---0-|
A|2------2------2------2-----|2---2--2---2--2---2--2---2-|
E|0------0------0------0-----|0---0--0---0--0---0--0---0-|
a-Yeah, yeah I'm gonna
e|------ ------ ------ ------|------ ------ ------ ------|
B|---------------------------|---------------------------|
G|1------2----/-4------2-----|1------2----/-4------2-----|
D|0------0------0------0-----|0------0------0------0-----|
A|2------4----/-5------4-----|2------4----/-5------4-----|
E|0------0------0------0-----|0------0------0------0-----|
A7 A13 A7 A13
e|0----- 2----- 3----- 2-----|0----- 2----- 3----- 2-----|
B|2------2------2------2-----|2------2------2------2-----|
G|0------0------0------0-----|0------0------0------0-----|
D|2------2------2------2-----|2------2------2------2-----|
A|0------0------0------0-----|0------0------0------0-----|
E|---------------------------|---------------------------|
Kansas city Gonna get my baby one time
e|------ ------ ------ ------|------ ------ ------ ------|
B|2------3----/-5------3-----|2------3----/-5------3-----|
G|0------0------0------0-----|0------0------0------0-----|
D|2------4----/-5------4-----|2------4----/-5------4-----|
A|0------0------0------0-----|0------0------0------0-----|
E|---------------------------|---------------------------|
E7 E13 E7 E13
e|0----- 0----- 0----- 0-----|0----- 0----- 0----- 0-----|
B|0------2------3------2-----|0------2------3------2-----|
G|1------1------1------1-----|1------1------1------1-----|
D|0------0------0------0-----|0------0------0------0-----|
A|2------2------2------2-----|2------2------2------2-----|
E|0------0------0------0-----|0------0------0------0-----|
a-Yeah, yeah It's just a
e|------ ------ ------ ------|------ ------ ------ ------|
B|---------------------------|---------------------------|
G|1------2----/-4------2-----|1------2----/-4------2-----|
D|0------0------0------0-----|0------0------0------0-----|
A|2------4----/-5------4-----|2------4----/-5------4-----|
E|0------0------0------0-----|0------0------0------0-----|
B7 B13 B7 B13 A7 A13 A7 A13
e|2---2- 4----- 5----- 4-----|0---0- 2----- 3----- 2-----|
B|4---4--4------4------4-----|2---2--2------2------2-----|
G|2---2--2------2------2-----|0---0--0------0------0-----|
D|4---4--4------4------4-----|2---2--2------2------2-----|
A|2---2--2------2------2-----|0---0--0------0------0-----|
E|---------------------------|---------------------------|
one two three four five six seven eight nine
e|------ ------ ------ ------|------ ------ ------ ------|
B|4------5----/-7------5-----|2------3----/-5------3-----|
G|4------4----/-8------4-----|0------0------0------0-----|
D|4------6----/-7------6-----|2------4----/-5------4-----|
A|---------------------------|0------0------0------0-----|
E|---------------------------|---------------------------|
E7 E13 E7 E13 A6 Bb6 B6
e|0----- 0----- 0----- 0-----|0---2- 3---4- ------ ------|
B|0------2------3------2-----|0---2--3---4---------------|
G|1------1------1------1-----|1---2--3---4---------------|
D|0------0------0------0-----|0--------------------------|
A|2------2------2------2-----|2--------------------------|
E|0------0------0------0-----|0--------------------------|
e|------ ------ ------ ------|------ ------ ------ ------|
B|---------------------------|---------------------------|
G|1------2----/-4------2-----|1---2--3---4---------------|
D|0------0------0------0-----|0---2--3---4---------------|
A|2------4----/-5------4-----|2---0--1---2---------------|
E|0------0------0------0-----|0--------------------------|
Solo
E7
e|------ ------ 0----- ------|------ ------ ------ ------|
B|0--------------------------|---------------------------|
G|----3--------------3B4-----|2------2P0----0------------|
D|---------------------------|-----------2------2------2-|
A|---------------------------|---------------------------|
E|---------------------------|---------------------------|
e|------ ------ ------ ------|----0- ----0- ------ ------|
B|---------------------------|--0------0-----------------|
G|0------2-B-4--4-R-2--0-----|3------3------42----0-----|
D|---------------------------|-------------------------2-|
A|---------------------------|---------------------------|
E|---------------------------|---------------------------|
A7
e|------ ------ ------ ------|------ ------ ------ ------|
B|---------------------------|-------0-------------------|
G|--------------0------------|2-B-4------4-R-2--0--------|
D|-----------2------2--------|---------------------2-----|
A|---------------------------|---------------------------|
E|---------------------------|---------------------------|
E7
e|0----- ------ ------ ------|------ 7----- ----3- 0-----|
B|-----------8--10B11--11R10-|10B12-------------2--------|
G|-----/-9-------------------|---------------------------|
D|---------------------------|---------------------------|
A|---------------------------|---------------------------|
E|---------------------------|---------------------------|
B7 A7
e|0----- ----0- ------ ------|0----- ----0- ------ ------|
B|0----------0---------------|0----------0---------------|
G|-----2B4------42----0-----|-----2B4------4------4R2--2P
D|---------------------------|---------------------------|
A|---------------------------|---------------------------|
E|---------------------------|---------------------------|
E7 B7
e|------ ------ ------ ------|------ ------ ------ ------|
B|---------------------------|---------------------------|
G|0--------------------------|---------------------------|
D|----2--0------0----------1-|---------------------------|
A|-----------2---------4-----|2--------------------------|
E|---------------------------|---------------------------|
Hey hey hey
E7 E13 E7 E13
e|0----- 0----- 0----- 0-----|0----- 0----- 0----- 0-----|
B|0------2------3------2-----|0------2------3------2-----|
G|1------1------1------1-----|1------1------1------1-----|
D|0------0------0------0-----|0------0------0------0-----|
A|2------2------2------2-----|2------2------2------2-----|
E|0------0------0------0-----|0------0------0------0-----|
hey Hey, baby
(Hey hey hey hey)
e|------ ------ ------ ------|------ ------ ------ ------|
B|---------------------------|---------------------------|
G|1------2----/-4------2-----|1------2----/-4------2-----|
D|0------0------0------0-----|0------0------0------0-----|
A|2------4----/-5------4-----|2------4----/-5------4-----|
E|0------0------0------0-----|0------0------0------0-----|
e|0----- 0----- 0----- 0-----|0----- 0----- 0----- 0-----|
B|0------2------3------2-----|0------2------3------2-----|
G|1------1------1------1-----|1------1------1------1-----|
D|0------0------0------0-----|0------0------0------0-----|
A|2------2------2------2-----|2------2------2------2-----|
E|0------0------0------0-----|0------0------0------0-----|
Oooh now gal
(Hey, baby)
e|------ ------ ------ ------|------ ------ ------ ------|
B|---------------------------|---------------------------|
G|1------2----/-4------2-----|1------2----/-4------2-----|
D|0------0------0------0-----|0------0------0------0-----|
A|2------4----/-5------4-----|2------4----/-5------4-----|
E|0------0------0------0-----|0------0------0------0-----|
A7 A13 A7 A13
e|0----- 2----- 3----- 2-----|0----- 2----- 3----- 2-----|
B|2------2------2------2-----|2------2------2------2-----|
G|0------0------0------0-----|0------0------0------0-----|
D|2------2------2------2-----|2------2------2------2-----|
A|0------0------0------0-----|0------0------0------0-----|
E|---------------------------|---------------------------|
I said yeah now pal
(Well gal)
e|------ ------ ------ ------|------ ------ ------ ------|
B|2------3----/-5------3-----|2------3----/-5------3-----|
G|0------0------0------0-----|0------0------0------0-----|
D|2------4----/-5------4-----|2------4----/-5------4-----|
A|0------0------0------0-----|0------0------0------0-----|
E|---------------------------|---------------------------|
E7 E13 E7 E13
e|0----- 0----- 0----- 0-----|0----- 0----- 0----- 0-----|
B|0------2------3------2-----|0------2------3------2-----|
G|1------1------1------1-----|1------1------1------1-----|
D|0------0------0------0-----|0------0------0------0-----|
A|2------2------2------2-----|2------2------2------2-----|
E|0------0------0------0-----|0------0------0------0-----|
No no no no tell
(Well, pal)
e|------ ------ ------ ------|------ ------ ------ ------|
B|---------------------------|---------------------------|
G|1------2----/-4------2-----|1------2----/-4------2-----|
D|0------0------0------0-----|0------0------0------0-----|
A|2------4----/-5------4-----|2------4----/-5------4-----|
E|0------0------0------0-----|0------0------0------0-----|
B7 B13 B7 B13 A7 A13 A7 A13
e|2---2- 4----- 5----- 4-----|0---0- 2----- 3----- 2-----|
B|4---4--4------4------4-----|2---2--2------2------2-----|
G|2---2--2------2------2-----|0---0--0------0------0-----|
D|4---4--4------4------4-----|2---2--2------2------2-----|
A|2---2--2------2------2-----|0---0--0------0------0-----|
E|---------------------------|---------------------------|
me baby What's been wrong with you?
e|------ ------ ------ ------|------ ------ ------ ------|
B|4------5----/-7------5-----|2------3----/-5------3-----|
G|4------4----/-8------4-----|0------0------0------0-----|
D|4------6----/-7------6-----|2------4----/-5------4-----|
A|---------------------------|0------0------0------0-----|
E|---------------------------|---------------------------|
E7 E13 E7 E13 E7
e|0----- 0----- 0----- 0-----|0----- ------ ------ ------|
B|0------2------3------2-----|3--------------------------|
G|1------1------1------1-----|1--------------------------|
D|0------0------0------0-----|0--------------------------|
A|2------2------2------2-----|2--------------------------|
E|0------0------0------0-----|0--------------------------|
a-Hey hey hey
e|------ ------ ------ ------|------ ------ ------ ------|
B|---------------------------|---------------------------|
G|1------2----/-4------2-----|1--------------------------|
D|0------0------0------0-----|0--------------------------|
A|2------4----/-5------4-----|2--------------------------|
E|0------0------0------0-----|0--------------------------|
E7 E13 E7 E13
e|0----- 0----- 0----- 0-----|0----- 0----- 0----- 0-----|
B|0------2------3------2-----|0------2------3------2-----|
G|1------1------1------1-----|1------1------1------1-----|
D|0------0------0------0-----|0------0------0------0-----|
A|2------2------2------2-----|2------2------2------2-----|
E|0------0------0------0-----|0------0------0------0-----|
hey Hey now
(Hey hey hey hey)
e|------ ------ ------ ------|------ ------ ------ ------|
B|---------------------------|---------------------------|
G|1------2----/-4------2-----|1------2----/-4------2-----|
D|0------0------0------0-----|0------0------0------0-----|
A|2------4----/-5------4-----|2------4----/-5------4-----|
E|0------0------0------0-----|0------0------0------0-----|
e|0----- 0----- 0----- 0-----|0----- 0----- 0----- 0-----|
B|0------2------3------2-----|0------2------3------2-----|
G|1------1------1------1-----|1------1------1------1-----|
D|0------0------0------0-----|0------0------0------0-----|
A|2------2------2------2-----|2------2------2------2-----|
E|0------0------0------0-----|0------0------0------0-----|
baby Ooooh now gal
(Hey, baby)
e|------ ------ ------ ------|------ ------ ------ ------|
B|---------------------------|---------------------------|
G|1------2----/-4------2-----|1------2----/-4------2-----|
D|0------0------0------0-----|0------0------0------0-----|
A|2------4----/-5------4-----|2------4----/-5------4-----|
E|0------0------0------0-----|0------0------0------0-----|
A7 A13 A7 A13
e|0----- 2----- 3----- 2-----|0----- 2----- 3----- 2-----|
B|2------2------2------2-----|2------2------2------2-----|
G|0------0------0------0-----|0------0------0------0-----|
D|2------2------2------2-----|2------2------2------2-----|
A|0------0------0------0-----|0------0------0------0-----|
E|---------------------------|---------------------------|
I said yeah now,
(Well, gal)
e|------ ------ ------ ------|------ ------ ------ ------|
B|2------3----/-5------3-----|2------3----/-5------3-----|
G|0------0------0------0-----|0------0------0------0-----|
D|2------4----/-5------4-----|2------4----/-5------4-----|
A|0------0------0------0-----|0------0------0------0-----|
E|---------------------------|---------------------------|
E7 E13 E7 E13
e|0----- 0----- 0----- 0-----|0----- 0----- 0----- 0-----|
B|0------2------3------2-----|0------2------3------2-----|
G|1------1------1------1-----|1------1------1------1-----|
D|0------0------0------0-----|0------0------0------0-----|
A|2------2------2------2-----|2------2------2------2-----|
E|0------0------0------0-----|0------0------0------0-----|
pal No no no no tell
(Well, pal)
e|------ ------ ------ ------|------ ------ ------ ------|
B|---------------------------|---------------------------|
G|1------2----/-4------2-----|1------2----/-4------2-----|
D|0------0------0------0-----|0------0------0------0-----|
A|2------4----/-5------4-----|2------4----/-5------4-----|
E|0------0------0------0-----|0------0------0------0-----|
B7 B13 B7 B13 A7 A13 A7 A13
e|2---2- 4----- 5----- 4-----|0---0- 2----- 3----- 2-----|
B|4---4--4------4------4-----|2---2--2------2------2-----|
G|2---2--2------2------2-----|0---0--0------0------0-----|
D|4---4--4------4------4-----|2---2--2------2------2-----|
A|2---2--2------2------2-----|0---0--0------0------0-----|
E|---------------------------|---------------------------|
me, baby, What's been wrong with you?
e|------ ------ ------ ------|------ ------ ------ ------|
B|4------5----/-7------5-----|2------3----/-5------3-----|
G|4------4----/-8------4-----|0------0------0------0-----|
D|4------6----/-7------6-----|2------4----/-5------4-----|
A|---------------------------|0------0------0------0-----|
E|---------------------------|---------------------------|
E7 E13 E7 E13 B7
e|0----- 0----- 0----- 0-----|------ ------ ------ ------|
B|0------2------3------2-----|0---0--0---0--0---0--0---0-|
G|1------1------1------1-----|2---2--2---2--2---2--2---2-|
D|0------0------0------0-----|1---1--1---1--1---1--1---1-|
A|2------2------2------2-----|2---2--2---2--2---2--2---2-|
E|0------0------0------0-----|---------------------------|
Well, I say bye
e|------ ------ ------ ------|------ ------ ------ ------|
B|---------------------------|4------5----/-7------5-----|
G|1------2----/-4------2-----|4------4----/-8------4-----|
D|0------0------0------0-----|4------6----/-7------6-----|
A|2------4----/-5------4-----|---------------------------|
E|0------0------0------0-----|---------------------------|
E7 E13 E7 E13
e|0----- 0----- 0----- 0-----|0----- 0----- 0----- 0-----|
B|0------2------3------2-----|0------2------3------2-----|
G|1------1------1------1-----|1------1------1------1-----|
D|0------0------0------0-----|0------0------0------0-----|
A|2------2------2------2-----|2------2------2------2-----|
E|0------0------0------0-----|0------0------0------0-----|
Bye bye, baby, bye bye
(Bye bye, bye bye, bye bye)
e|------ ------ ------ ------|------ ------ ------ ------|
B|---------------------------|---------------------------|
G|1------2----/-4------2-----|1------2----/-4------2-----|
D|0------0------0------0-----|0------0------0------0-----|
A|2------4----/-5------4-----|2------4----/-5------4-----|
E|0------0------0------0-----|0------0------0------0-----|
e|0----- 0----- 0----- 0-----|0----- 0----- 0----- 0-----|
B|0------2------3------2-----|0------2------3------2-----|
G|1------1------1------1-----|1------1------1------1-----|
D|0------0------0------0-----|0------0------0------0-----|
A|2------2------2------2-----|2------2------2------2-----|
E|0------0------0------0-----|0------0------0------0-----|
Ooooh So long
(Bye bye, bye bye, bye bye)
e|------ ------ ------ ------|------ ------ ------ ------|
B|---------------------------|---------------------------|
G|1------2----/-4------2-----|1------2----/-4------2-----|
D|0------0------0------0-----|0------0------0------0-----|
A|2------4----/-5------4-----|2------4----/-5------4-----|
E|0------0------0------0-----|0------0------0------0-----|
A7 A13 A7 A13
e|0----- 2----- 3----- 2-----|0----- 2----- 3----- 2-----|
B|2------2------2------2-----|2------2------2------2-----|
G|0------0------0------0-----|0------0------0------0-----|
D|2------2------2------2-----|2------2------2------2-----|
A|0------0------0------0-----|0------0------0------0-----|
E|---------------------------|---------------------------|
Bye bye, baby I'm
(So long, so long, so long)
e|------ ------ ------ ------|------ ------ ------ ------|
B|2------3----/-5------3-----|2------3----/-5------3-----|
G|0------0------0------0-----|0------0------0------0-----|
D|2------4----/-5------4-----|2------4----/-5------4-----|
A|0------0------0------0-----|0------0------0------0-----|
E|---------------------------|---------------------------|
E7 E13 E7 E13
e|0----- 0----- 0----- 0-----|0----- 0----- 0----- 0-----|
B|0------2------3------2-----|0------2------3------2-----|
G|1------1------1------1-----|1------1------1------1-----|
D|0------0------0------0-----|0------0------0------0-----|
A|2------2------2------2-----|2------2------2------2-----|
E|0------0------0------0-----|0------0------0------0-----|
gone Yeah I say
(Bye bye, bye bye, bye bye
e|------ ------ ------ ------|------ ------ ------ ------|
B|---------------------------|---------------------------|
G|1------2----/-4------2-----|1------2----/-4------2-----|
D|0------0------0------0-----|0------0------0------0-----|
A|2------4----/-5------4-----|2------4----/-5------4-----|
E|0------0------0------0-----|0------0------0------0-----|
B7 B13 B7 B13 A7 A13 A7 A13
e|2---2- 4----- 5----- 4-----|0---0- 2----- 3----- 2-----|
B|4---4--4------4------4-----|2---2--2------2------2-----|
G|2---2--2------2------2-----|0---0--0------0------0-----|
D|4---4--4------4------4-----|2---2--2------2------2-----|
A|2---2--2------2------2-----|0---0--0------0------0-----|
E|---------------------------|---------------------------|
bye bye, baby bye bye
e|------ ------ ------ ------|------ ------ ------ ------|
B|4------5----/-7------5-----|2------3----/-5------3-----|
G|4------4----/-8------4-----|0------0------0------0-----|
D|4------6----/-7------6-----|2------4----/-5------4-----|
A|---------------------------|0------0------0------0-----|
E|---------------------------|---------------------------|
E7 E13 E7 E13 B7
e|0----- 0----- 0----- 0-----|------ ------ ------ ------|
B|0------2------3------2-----|0---0--0---0--0---0--0---0-|
G|1------1------1------1-----|2---2--2---2--2---2--2---2-|
D|0------0------0------0-----|1---1--1---1--1---1--1---1-|
A|2------2------2------2-----|2---2--2---2--2---2--2---2-|
E|0------0------0------0-----|---------------------------|
bye bye bye now bye
e|------ ------ ------ ------|------ ------ ------ ------|
B|---------------------------|4------5----/-7------5-----|
G|1------2----/-4------2-----|4------4----/-8------4-----|
D|0------0------0------0-----|4------6----/-7------6-----|
A|2------4----/-5------4-----|---------------------------|
E|0------0------0------0-----|---------------------------|
E7 E13 E7 E13
e|0----- 0----- 0----- 0-----|0----- 0----- 0----- 0-----|
B|0------2------3------2-----|0------2------3------2-----|
G|1------1------1------1-----|1------1------1------1-----|
D|0------0------0------0-----|0------0------0------0-----|
A|2------2------2------2-----|2------2------2------2-----|
E|0------0------0------0-----|0------0------0------0-----|
Bye bye, baby, bye bye
(Bye bye, bye bye, bye bye)
e|------ ------ ------ ------|------ ------ ------ ------|
B|---------------------------|---------------------------|
G|1------2----/-4------2-----|1------2----/-4------2-----|
D|0------0------0------0-----|0------0------0------0-----|
A|2------4----/-5------4-----|2------4----/-5------4-----|
E|0------0------0------0-----|0------0------0------0-----|
.........................Fade..........................
e|0----- 0----- 0----- 0-----|0----- 0----- 0----- 0-----|
B|0------2------3------2-----|0------2------3------2-----|
G|1------1------1------1-----|1------1------1------1-----|
D|0------0------0------0-----|0------0------0------0-----|
A|2------2------2------2-----|2------2------2------2-----|
E|0------0------0------0-----|0------0------0------0-----|
Ooooh So long
(Bye bye, bye bye, bye bye)
e|------ ------ ------ ------|------ ------ ------ ------|
B|---------------------------|---------------------------|
G|1------2----/-4------2-----|1------2----/-4------2-----|
D|0------0------0------0-----|0------0------0------0-----|
A|2------4----/-5------4-----|2------4----/-5------4-----|
E|0------0------0------0-----|0------0------0------0-----|
.......................................................
B Bend
R Release
/ slide up
slide down
H hammer-on
P pull-off
~ vibrato
+ harmonic
x Mute note
. - play note like a dot in standard notation
^ - ties two notes together



Get this song at amazon.com      Ebay     Ringtones Ringtones  


Learn to play: Songwriting, Piano, Harmonica, Guitar

Related Beatles Tabs

Sergeant Peppers Lonely tabs
Good Day Sunshine tabs
Yesterday tabs
Daytripper tabs
One After 909 tabs
Drive My Car tabs
Lucy In The Sky tabs
One & One Is Two tabs
Ivejustseenaface tabs
Something tabs
The Continuing Story Of Bungalow Bill tabs
Getting Better tabs
Dont Let Me Down tabs
Nobodyiknow tabs
In My Life tabs
Youve Got To Hide Your Love Away Bass tabs
I Am The Walrus tabs
Across The Universe tabs
Iamawalrus tabs
Badboy tabs


Guitar Tabs









All tabs are property and copyright of their owners. All tabs provided for educational purposes only. Privacy Policy, DMCA