Beatles

Julia Tabs



More from Beatles

Beatles Tabs
Beatles Chords
Beatles Bass
Beatles Lyrics

[two versions]

ok- the bridge is a bit shaky here but it's the right idea at least (all
I have here is my trusty old Ovation 12 and it gets kinda rough to hear
if I'm doing things right or not...) some of the bass notes are a bit of
a reach [and may also not be right- esp. the G+9/Gm7 part...] feel free
to mail me any corrections, or just enjoy as is...

todd.

------cut-----



"Julia"
The Beatles transcribed by todd j. derr (infidel+@pitt.edu)

ok.... you'll need a capo on the second fret for this one... hopefully it's
(mostly) right... after you listen to it too long... well, you know, your ear
gets harmonically whacked. ugh.... have fun...

oh yeah... consider all the notes to be up 2fr... it just doesn't sound right
in C... also the chords are from a book... some of the 7th's don't sound like
7th's to me and I don't have them tabbed that way.

Part I: (verse/chorus)
[I']
D Bm7 F#m7 D Bm7 F#m7 A7
F#---3-------3-------3-------3-------3-------3-------3-------3-------
C#---------1-------1-------0-------0-------1-------1-------0-------3-
A--------0-------2-------0-------0-------0-------2-------0-------0---
E------2-------2-------2-------2-------2-------2-------2-------0-----
B----3-------0-------2-------2-------3-------0-------2-------2-------
F#-----------------------------------------------------------3-------


Part II: (verses)

D Bm7 Am Am7 B7 G9 Gm7
-3-------3-------3-------5-------5-------5-------3-------4-------
-------1-------1-------3-------3-------5-------5-------1-------1-
-----0-------2-------3-------3-------6-------6-------2-------1---
---2-------2-------5-------5-------5-------5-------3-------3-----
-3-------0-------------------------------------------------------
-----------------3-------3-------5-------5-------1-------1-------

(then just like the 2nd half of part I (marked I') [D Bm7 F#m7 A7])


Part III: (bridge)

C#m D Bm7 Bm6 F#m7
-2-------2-------3-------3-------3-------2-------2-------0------
-------3-------3-------1-------1-------1-------1-------0-------0
-----4-------4-------0-------0-------2-------2-------0-------0--
---4-------4-------2-------2-------2-------2-------2-------2----
-2-------2-------3-------3-------0-------0-------2-------2------
----------------------------------------------------------------

F#m7 D
-----------------
3-----3-1-----1--
----0-------0----
--2-------2------
2-------3--------
-----------------


OK... now how it all fits together... [I]=play part I, etc.

[I] D Bm7 F#m7
Half of what I say is meaning less,
D Bm7 F#m7 A7
But I say it just to reach you Ju-----li-a.
[II] D Bm7 Am Am7 B7 G9 Gm7
Ju--li-a, Ju--li-a, Ocean child calls me.
[I'] D Bm7 F#m7 A7
So I sing a song of love, Ju-----li-a.
[II] D Bm7 Am Am7 B7 G9 Gm7
Ju--li-a, sea-shell eyes, windy smile calls me.
[I'] D Bm7 F#m7 A7 D
So I sing a song of love, Ju-----li-a.

[III] C#m D Bm7 Bm6 F#m7 D
Her hair of floating sky is shimmering, glimmering, in the sun.

[II] D Bm7 Am Am7 B7 G9 Gm7
Ju--li-a, Ju--li-a, morning moon touch me.
[I'] D Bm7 F#m7 A7
So I sing a song of love, Ju-----li-a.
[I] D Bm7 F#m7
When I cannot sing my heart,
D Bm7 F#m7 A7
I can only speak my mind, Ju-----li-a.
[II] D Bm7 Am Am7 B7 G9 Gm7
Ju--li-a, sleeping sand, silent cloud touch me.
[I'] D Bm7 F#m7 A7
So I sing a song of love, Ju-----li-a.
[play part II as instrumental without I']
[I] D Bm7 F#m7 D F#m7 D F#m7 A7 D
So I sing a song of love for Ju---li-a, Ju---li-a, Ju-----li-a







--
todd j. derr - the c.o.m.a. moderator! "i've got nothing to say but
infidel+@pitt.edu (412) 363-9027 it's ok."
infidel@pittunix (BIT) work: 648-1247
if your mail bounces, send it to infidel@unix.cis.pitt.edu. thanks!


JULIA - The Beatles
---------------------------------



From the White Album

tabbed by Howard Wright
H.Wright@astro.cf.ac.uk


You'll need a capo for this one on the 1st or 2nd fret.

The TAB for this might look a bit daunting at first, but it's based
on pretty straight forward chord shapes.

The only chords you need are these :


EADGBE EADGBE EADGBE EADGBE EADGBE
332010 002213 022003 320033 353333

C/G Am7/E Em G Gm7


EADGBE EADGBE EADGBE EADGBE EADGBE
353335 575655 131213 131114 224432

Gm9 A7 F9 Fm7 Bm/F#


EADGBE EADGBE EADGBE EADGBE EADGBE
002212 022030 022020 022010 332000

Am6/E Em7 Em6 Emadd#5 Cmaj7/G



To get the picking pattern in your head, I'll give a brief
explanation.

The key to it is the movement of the thumb. The thumb picks out
the notes on the E, A and D strings. For each chord played, the
order of strings which the thumb picks is the same - it goes
like this :

A D E D

While the thumb gets on with this, use your other fingers to
fill in the notes on the top strings.

If you try it a few times, slowly, you should pick up the natural
rhythm which the picking pattern has.

Then, just practice !

I've tabbed the song out in full, although you'll soon realise
that a lot of it is very similar with certain sections being
repeated here and there.




C/G Am7/E Em

E----3---------------3---------------3---------------3----------------
B--------------1---------------1---------------0---------------0------
G----------0---------------2---------------0---------------0----------
D--------2-------2-------2-------2-------2-------2-------2-------2----
A----3---------------0---------------2---------------2----------------
E------------3---------------0---------------0---------------0--------

Half of what I say is meaning-less



C/G Am7/E Em G

E----3---------------3---------------3---------------3----------------
B--------------1---------------1---------------0---------------0------
G----------0---------------2---------------0---------------0----------
D--------2-------2-------2-------2-------2-------2-------0-------0----
A----3---------------0---------------2---------------2----------------
E------------3---------------0---------------0---------------3--------

But I say it just to reach you Ju - lia



C/G Am7/E Gm7 Gm9

E----3---------------3---------------3---------------5----------------
B--------------1---------------1---------------3---------------3------
G----------0---------------2---------------3---------------3----------
D--------2-------2-------2-------2-------3-------3-------3-------3----
A----3---------------0---------------5---------------5----------------
E------------3---------------0---------------3---------------3--------

Ju - lia Ju - lia



A7 F9 Fm7

E----5---------------5---------------3---------------4----------------
B--------------5---------------5---------------1---------------1------
G----------6---------------6---------------2---------------1----------
D--------5-------5-------5-------5-------1-------1-------1-------1----
A----7---------------7---------------3---------------3----------------
E------------5---------------5---------------1---------------1--------

O - cean child calls me



C/G Am7/E Em G

E----3---------------3---------------3---------------3----------------
B--------------1---------------1---------------0---------------0------
G----------0---------------2---------------0---------------0----------
D--------2-------2-------2-------2-------2-------2-------0-------0----
A----3---------------0---------------2---------------2----------------
E------------3---------------0---------------0---------------3--------

So I sing a song of love Ju - lia



C/G Am7/E Gm7 Gm9

E----3---------------3---------------3---------------5----------------
B--------------1---------------1---------------3---------------3------
G----------0---------------2---------------3---------------3----------
D--------2-------2-------2-------2-------3-------3-------3-------3----
A----3---------------0---------------5---------------5----------------
E------------3---------------0---------------3---------------3--------

Ju - lia sea shell eyes



A7 F9 Fm7

E----5---------------5---------------3---------------4----------------
B--------------5---------------5---------------1---------------1------
G----------6---------------6---------------2---------------1----------
D--------5-------5-------5-------5-------1-------1-------1-------1----
A----7---------------7---------------3---------------3----------------
E------------5---------------5---------------1---------------1--------

win - dy smile calls me



C/G Am7/E Em G

E----3---------------3---------------3---------------3----------------
B--------------1---------------1---------------0---------------0------
G----------0---------------2---------------0---------------0----------
D--------2-------2-------2-------2-------2-------2-------0-------0----
A----3---------------0---------------2---------------2----------------
E------------3---------------0---------------0---------------3--------

So I sing a song of love Ju - lia




E----3---------------3----------------------------------------
B--------------1---------------1------------------------------
G----------0---------------0----------------------------------
D--------2-------2-------2--------2---------------------------
A----3---------------3----------------------------------------
E------------3---------------3--------------------------------



Middle 8
---------

Bm/F# C/G

E---2---------------2---------------3---------------3--------------
B-------------3---------------3---------------1---------------1----
G---------4---------------4---------------0---------------0--------
D-------4-------4-------4-------4-------2-------2-------2-------2--
A---2---------------2---------------3---------------3--------------
E-----------2---------------2---------------3---------------3------

her hair of floating sky is shimmering



Am7/E Am6/E Em7 Em6

E---3---------------2------------------------------------------------
B-------------1---------------1------3---------3-----2---------2-----
G---------2---------------2----------------0---------------0---------
D-------2-------2-------2-------2--------2-------2-------2-------2---
A---0---------------0----------------2---------------2---------------
E-----------0---------------0----------------0---------------0-------

glimmering in the sun



Emadd#5 Em

E----------------------------------------------------------------
B---1---------1-----0---------0----------------------------------
G---------0---------------0--------------------------------------
D-------2-------2-------2-------2--------------------------------
A---2---------------2--------------------------------------------
E-----------0---------------0------------------------------------



C/G Am7/E Gm7 Gm9

E----3---------------3---------------3---------------5---------------
B--------------1---------------1---------------3---------------3-----
G----------0---------------2---------------3---------------3---------
D--------2-------2-------2-------2-------3-------3-------3-------3---
A----3---------------0---------------5---------------5---------------
E------------3---------------0---------------3---------------3-------

Ju - lia Ju - lia



A7 F9 Fm7

E----5---------------5---------------3---------------4--------------
B--------------5---------------5---------------1---------------1----
G----------6---------------6---------------2---------------1--------
D--------5-------5-------5-------5-------1-------1-------1-------1--
A----7---------------7---------------3---------------3--------------
E------------5---------------5---------------1---------------1------

mor - ning moon touch me



C/G Am7/E Em G

E----3---------------3---------------3---------------3---------------
B--------------1---------------1---------------0---------------0-----
G----------0---------------2---------------0---------------0---------
D--------2-------2-------2-------2-------2-------2-------0-------0---
A----3---------------0---------------2---------------2---------------
E------------3---------------0---------------0---------------3-------

So I sing a song of love Ju - lia



C/G Am7/E

E----3---------------3-----------------3---------------3--------------
B--------------1---------------1-----------------1---------------1----
G----------0---------------0-----------------0---------------2--------
D--------2-------2-------2--------2--------2-------2-------2--------2-
A----3---------------3-----------------3---------------0--------------
E------------3---------------3-----------------3---------------0------

when I cannot sing my heart


Em C/G Am7/E

E---3---------------3---------------3---------------3-----------------
B-------------0---------------0---------------1---------------1-------
G---------0---------------0---------------0---------------2-----------
D-------2-------2-------2-------2-------2-------2-------2-------2-----
A---2---------------2---------------3---------------0-----------------
E-----------0---------------0---------------3---------------0---------

I can only speak my mind


Em G

E---3---------------3----------------------|
B-------------0---------------0------------|
G---------0---------------0----------------|
D-------2-------2-------0-------0----------|
A---2---------------2----------------------|
E------------0---------------3-------------|

Ju - lia



C/G Am7/E Gm7 Gm9

E----3---------------3---------------3---------------5--------------
B--------------1---------------1---------------3---------------3----
G----------0---------------2---------------3---------------3--------
D--------2-------2-------2-------2-------3-------3-------3-------3--
A----3---------------0---------------5---------------5--------------
E------------3---------------0---------------3---------------3------

Ju - lia sleep - ing sand



A7 F9 Fm7

E----5---------------5---------------3---------------4---------------
B--------------5---------------5---------------1---------------1-----
G----------6---------------6---------------2---------------1---------
D--------5-------5-------5-------5-------1-------1-------1-------1---
A----7---------------7---------------3---------------3---------------
E------------5---------------5---------------1---------------1-------

si - lent cloud touch me



C/G Am7/E Em G

E----3---------------3---------------3---------------3---------------
B--------------1---------------1---------------0---------------0-----
G----------0---------------2---------------0---------------0---------
D--------2-------2-------2-------2-------2-------2-------0-------0---
A----3---------------0---------------2---------------2---------------
E------------3---------------0---------------0---------------3-------

So I sing a song of love Ju - lia


Instrumental
-------------

C/G Am7/E Gm7 Gm9

E----3---------------3---------------3---------------5---------------
B--------------1---------------1---------------3---------------3-----
G----------0---------------2---------------3---------------3---------
D--------2-------2-------2-------2-------3-------3-------3-------3---
A----3---------------0---------------5---------------5---------------
E------------3---------------0---------------3---------------3-------




A7 F9 Fm7

E----5---------------5---------------3---------------4----------------
B--------------5---------------5---------------1---------------1------
G----------6---------------6---------------2---------------1----------
D--------5-------5-------5-------5-------1-------1-------1-------1----
A----7---------------7---------------3---------------3----------------
E------------5---------------5---------------1---------------1--------



Outtro
-------

C/G Am7/E Em C/G

E----3---------------3---------------3---------------3---------------
B--------------1---------------1---------------0---------------1-----
G----------0---------------2---------------0---------------0---------
D--------2-------2-------2-------2-------2-------2-------2-------0---
A----3---------------0---------------2---------------3---------------
E------------3---------------0---------------0---------------3-------

So I sing a song of love Ju - lia



Em C/G Em G

E----3---------------3---------------3---------------3--------------
B-------------0---------------1----------------0---------------3----
G----------0---------------0---------------0---------------0--------
D--------2-------2-------2-------0-------2-------2-------0-------0--
A----2---------------3---------------2---------------2--------------
E-----------0---------------3----------------0---------------3------

Ju - lia Ju - lia



Cmaj7/G

E---------0---------------------
B--------0----------------------
G-------0-----------------------
D------2------------------------
A-----3-------------------------
E----3--------------------------
Get this song at amazon.com      Ebay     Ringtones Ringtones  


Learn to play: Songwriting, Piano, Harmonica, Guitar

Related Beatles Tabs

Toomuchmonkeybusiness tabs
Obladi Oblada tabs
Inmylife tabs
I Saw Her Standing There tabs
Yellow Submarine Bass tabs
Think For Yourself Bass tabs
One After 909 tabs
Ashotofrythmandblues tabs
Yellowsubmarine tabs
Honey Pie tabs
Work It Out tabs
Mother Natures Son tabs
Tell Me What You See Bass tabs
Im A Loser Bass tabs
Octopus Garden tabs
Youve Got To Hide Your Love tabs
All You Need Is Love tabs
Hello Little Girl tabs
Help! tabs
While My Guitar Gently Weeps Acoustic tabs


Guitar Tabs









All tabs are property and copyright of their owners. All tabs provided for educational purposes only. Privacy Policy, DMCA